Oops, an error
Loading. Please wait.

If Eternity Should Fail drums

version 1
version 1

Whole song

Interactive

286 views 1 this week
no commentswrite comment
1 2 3 4 5
x 4
add to favorites
×
Save as Personal and add changes to this tab that will be seen only by you. Learn more ›
×
You can save this tab as Personal to edit and correct it or add notes. All changes will be seen only by you. Learn more »
launch autoscroll
font size
0
reset
guitar tuner
edit
Autoscroll
slow
fast
+/-
esc
set tempo
stop
                            If Eternity Should Fail                             


                                  Iron Maiden



(Intro Song... At The End Of The Sheet)



Nicko McBrain



                                         Riff A                                
     S     Q     Q     Q        Q        Q      E   S  S  E   E   E   T  T  S  
C||----|--42----42----42-------------|---------51--51-51-51--51--51--51-51-51-|
C||----|--------------------38g38----|---------38----------------38-----------|
C||----|-----------------------------|----------------------------------------|
C||----|-----------------------------|--49------------------------------------|
C||----|-----------------------------|--36---------36----36----------36-------|
C||----|-----------------------------|----------------------------------------|


   E.   S  E   E   E   E   E   S  S     Q     E   S  S  E   E   E   E   
--51------51--51--51--51--51--------|--51----51--51-51-51--51--51--51--|
----------38--------------38--------|--------38----------------38------|
------------------------------45-43-|----------------------------------|
------------------------------------|----------------------------------|
--36---36-----36--36----------36----|--36--------36----36----------36--|
------------------------------------|----------------------------------|


   E.   S  E   E   E   E   E   S  S     Q     E   E   E   E   E   E   
--51------51--51--51--51--51--------|--------51--51--51--51--51--51--|
----------38--------------38--------|--------38--------------38------|
------------------------------45-43-|--------------------------------|
------------------------------------|--57----------------------------|
--36---36-----36--36----------36----|--36--------36--36----------36--|
------------------------------------|--------------------------------|


   E   S  S  E   E   E   S  S  E   S  S     Q     E   E   Q     E   E   
--51--51-51-51--51--51--51----51--------|--------51--51--51----51--51--|
------------38----------------38--------|--------38------------38------|
----------------------------------45-43-|------------------------------|
----------------------------------------|--49--------------------------|
--36-----36-----36--36--36-36-----36----|--36--------36--36--------36--|
----------------------------------------|------------------------------|


   E   E   E   E   E   T  T  T  T     E   E   
--51--51--46--44-----------------------------|
----------38----------------------38g38------|
----------------------45-45-43-43--------41--|
---------------------------------------------|
--36--------------36---------------------36--|
---------------------------------------------|


   Verso A                             
   Q       E   S  S  E   E   E   S  S  
----------42--46-44-42--44--42--44-46-|
----------38----------------38--------|
--------------------------------------|
--49----------------------------------|
--36----------------36----------------|
--------------------------------------|


   E   S  S  E   S  S  E   S  S  E   T  T  T  T  
--44--42-44-42--46-44-42--44----42--44-42-42-44-|
------------38------------------38--------------|
------------------------------------------------|
------------------------------------------------|
--36------------36----36-----36-----------------|
------------------------------------------------|


   E   S  S  E   E   E   S  S  E   S  S  
--42--46-44-42--42--42--46-44-42--42-44-|
------------38----------------38--------|
----------------------------------------|
----------------------------------------|
--36------------36--36------------------|
----------------------------------------|


   E   S  S  E   S  S  E   E      E   S  S  
--42--46-44-42--46-44-42--44---------------|
------------38----------------38g38--------|
-------------------------------------43-41-|
-------------------------------------------|
--36------------36----36-------------36----|
-------------------------------------------|


   Q     E   T  T  S  E   E   S  S  S  S  
--------42--42-42-46-42--44--42-44-42-46-|
--------38-------------------38----------|
-----------------------------------------|
--57-------------------------------------|
--36--------36-------36------------------|
-----------------------------------------|


   E   S  S  E   S  S  S  S  S  S  S  S  T  T  T  T  
--44--42-44-42--46-44-42-44-42-44-42-44-44-42-42-44-|
------------38--------------------38----------------|
----------------------------------------------------|
----------------------------------------------------|
--36------------36----36-------36-------------------|
----------------------------------------------------|


   E   S  S  E   T  T  S  S  S  S  S  S  S  S  S  
--42--46-44-42--42-42-44-42-44-42-44-42-46-44-42-|
------------38-----------------------38----------|
-------------------------------------------------|
-------------------------------------------------|
--36------------36-------36----------------------|
-------------------------------------------------|


                                          Puente                         
   E   E.   S  E   S  E   S  E   S  S     Q      E   E   E   E   E   E   
--------------------------------------|---------51--44--51--44--51--44--|
-----------38-38---------38-----------|---------38--------------38------|
------45----------43--------43--45-43-|---------------------------------|
--------------------------------------|--49-----------------------------|
--36-----------------36---------------|--36---------36--36----------36--|
--------------------------------------|---------------------------------|


   E   S  S  E   E   E   E   E   E      E   E   E   E   E   E   E   E   
--51--44----51--44--51--44--51--44--|--51--44--51--44--51--44--51--44--|
------------38--------------38------|----------38--------------38------|
------------------------------------|----------------------------------|
------------------------------------|----------------------------------|
--36-----36-----36--36--------------|--36----------36--36--------------|
------------------------------------|----------------------------------|


   E   E   E   E   S  S  E      E   E   
--51--44--51--44--------44---------44--|
----------38----------------38g38------|
------------------47-45-43---------43--|
---------------------------------------|
--36-------------------------------36--|
---------------------------------------|


   Verso B                                    
   Q       E   S  S  E   S  S  S  T  T  S  S  
----------42--46-44-42--44-42----42-42-44-42-|
----------38------------------38-------------|
---------------------------------------------|
--49-----------------------------------------|
--36----------36----36-----------------------|
---------------------------------------------|


   E   S  S  E   S  S  S  S  S  S  E   S  T  T  
--44--42-44-42--44-42-42-44-42-44-42--42-44-42-|
------------38--------------------38-----------|
-----------------------------------------------|
-----------------------------------------------|
--36-----36-----36----36-----------------------|
-----------------------------------------------|


   E   S  S  E   S  S  S  S  S  S  E   S  S  
--44--46-44-42--42-44-42-44-46-44-42--42-44-|
------------38--------------------38--------|
--------------------------------------------|
--------------------------------------------|
--36------------36----36--------------------|
--------------------------------------------|


   E   S  S  E   S  S  S  S  S  S  E   E   
--42--46-44-42--42-44-42-44-42-44---------|
------------38--------------------38------|
----------------------------------45--43--|
------------------------------------------|
--36-----36-----36----36--------------36--|
------------------------------------------|


   Q     E   T  T  S  E   T  S. E   T  T  T  T  
--------42--42-46-44-42--42-44-42--42-42-44-42-|
--------38---------------------38--------------|
-----------------------------------------------|
--57-------------------------------------------|
--36--------36-------36------------------------|
-----------------------------------------------|


   E   S  S  E   S  S  S  S  S  S  S  S  T  T  T  T  
--44--42-44-42--42-44-42-44-42-44-42-44-42-44-44-42-|
------------38--------------------38----------------|
----------------------------------------------------|
----------------------------------------------------|
--36------------36----36----------------------------|
----------------------------------------------------|


   E   S  S  S  S  S  S  S  S  S  S  S  S  S  S  
--42--46-44-42-44-42-44-42-44-42-44-42-44-42-44-|
------------38----------------------38----------|
------------------------------------------------|
------------------------------------------------|
--36--------------36----36----------------------|
------------------------------------------------|


   E   E   E   T  T  S  E   T  T  S  E   E   
--------------------------------------------|
--------------------------------------------|
------47--45--45-45-43-41--47-45-45-43--41--|
----------------------------------------57--|
--36-----------------------36-36--------36--|
--------------------------------------------|


   Pre-Coro                                                              
   Q        E   E   E   E   E   E      E   E   E   E   E   E   E   S  S  
-----------51--44--51--44----------|--51--44--51--44--51--44--51--------|
-----------38--------------47--45--|----------38--------------38--------|
---------------------------45--43--|------------------------------45-43-|
--49-------------------------------|------------------------------------|
--36-----------36------36----------|------36--------------36------36----|
-----------------------------------|------------------------------------|


   Q     E   E   E   E   E   E      E   E   E   S  S  E   E   E   S  S  
--------51--44--51--44--51--44--|--51--44--51--46-42-51--44--51--------|
--------38--------------38------|----------38----------------38--------|
--------------------------------|--------------------------------45-43-|
--57----------------------------|--------------------------------------|
--36--------36--36--------------|--36----------36--------36------36----|
--------------------------------|--------------------------------------|


   Q     E   E   E   E   E   E      E   E   E   E   E   E   E   S  S  
--------51--44--51--44----------|--51--44--51--44--51--44--51--------|
--------38--------------47--45--|----------38--------------38--------|
------------------------45--43--|------------------------------45-43-|
--49----------------------------|------------------------------------|
--36--------36------------------|------36----------36--36------36----|
--------------------------------|------------------------------------|


   E   E   E   E   E   E   E   E      E   E   S  S  E   E   S  S  E   S  S  
----------51--44--51--44--51--44--|----------------------------------------|
----------38--------------38------|-------------38-38--38------------------|
----------------------------------|------45--45------------45-45-45--45-43-|
--57----------------------49------|----------------------------------------|
--36--36------36--36--36----------|--36--36------------36------------------|
----------------------------------|----------------------------------------|


   Coro                                               
   Q     S  T  T  S  S  S  S  S  S  S  S  T  T  T  T  
--------42-42-44-42-44-42-44-42-46-44-42-44-42-42-44-|
--------38-------------------------38----------------|
-----------------------------------------------------|
--49-------------------------------------------------|
--36-------------36----36----------------36----------|
-----------------------------------------------------|


   E   S  S  S  S  S  S  S  S  S  S  S  S  T  T  T  T  
--44--42-44-42-44-42-44-42-44-42-44-42-44-44-42-42-44-|
------------38----------------------38----------------|
------------------------------------------------------|
------------------------------------------------------|
--36--------------36----36-------36-------36----------|
------------------------------------------------------|


   E   S  S  S  S  T  T  S  S  S  S  S  S  S  S  S  
--42--42-44-42-44-42-42-44-42-44-46-44-42-44-42-44-|
------------38-------------------------38----------|
---------------------------------------------------|
---------------------------------------------------|
--36--------------36-------36----------------36----|
---------------------------------------------------|


   E   E   E   T  T  S  E   E   E   E      Q     E   E   E   E   E   E   
--42--42--42--44-------42--42----------|--------59--59--59--59--59--59--|
----------38-------------------38------|--------38--------------38------|
--------------47-47-45-----------------|--------------------------------|
-------------------------------57------|--49----------------------------|
--36-------------------36--36--36--36--|--36--------36--36----------36--|
---------------------------------------|--------------------------------|


   Q     E   E   E   E   E   E      Q     E   E   E   E   E   S  S  
--------59--59--59--59--59--59--|--------59--59--59--59--59--------|
--------38--------------38------|--------38--------------38--------|
--------------------------------|----------------------------45-43-|
--57----------------------------|--49------------------------------|
--36--------36--36----------36--|--36--------36------36------------|
--------------------------------|----------------------------------|


   E   E   E   E   E   E   E   S  S     E   E   E   E   E   E   E   S  S  
------44--51--44--51--44--51--44----|------44--59--44--59--44--59--59-59-|
----------38--------------38--------|----------38--------------38--------|
------------------------------45-43-|------------------------------------|
--57--------------------------------|--49--------------------------------|
--36----------36------36------------|--36----------36--36----------------|
------------------------------------|------------------------------------|


   E   E   E   S  S  E   E   E   S  S  
--59--44--59--59-59-59--59--59--44----|
----------38----------------38--------|
--------------------------------45-43-|
--------------------------------------|
--36----------36----36----------------|
--------------------------------------|


   E   E   E   T  T  T  T  E   E   E   E      E   E   E   E   E   E   E   S  S  
--59--44--59--42-42-44-42-59--44--59--44--|------44--51--44--51--44--51--44----|
----------38----------------------38------|----------38--------------38--------|
------------------------------------------|---------------------------------41-|
------------------------------------------|--57--------------------------------|
--36----------36----------36--36------36--|--36----------36------36------36----|
------------------------------------------|------------------------------------|


   E   E   E   E   E   E   E   S  S     E   E   E   E   E   E   E   E   
------44--59--44--59--44--59--44----|--59--44--59--44--59--44--59--44--|
----------38--------------38--------|----------38--------------38------|
------------------------------------|----------------------------------|
--49--------------------------------|----------------------------------|
--36----------36------36---------36-|--36----------36--36----------36--|
------------------------------------|----------------------------------|


   E   E   E   T  T  T  T  E   E   E   S  S     E   E   E   E   E   E   E   E   
------44--59--42-42-44-42-59--44--59--44----|------44--51--44--51--44--51--44--|
----------38----------------------38--------|----------38--------------38------|
-----------------------------------------41-|----------------------------------|
--57----------------------------------------|--49------------------------------|
--36----------36----------36--36------36----|--36----------36------36----------|
--------------------------------------------|----------------------------------|


   Riff A                                                                  
   E      E   E   E   E   E   E   E      E   S  S  E   E   E   E   E   E   
---------44--51--44--51--44--51--44--|--51--44----51--44--51--44----------|
-------------38--------------38------|------------38--------------47--45--|
-------------------------------------|----------------------------45--43--|
--49---------------------------------|------------------------------------|
--36-------------36--36--------------|--36-----36-----36--36--------------|
-------------------------------------|------------------------------------|


   E   E   E   E   E   E   E   E   
--51--44--51--44--51--44--51--44--|
----------38--------------38------|
----------------------------------|
----------------------------------|
--36----------36--36--------------|
----------------------------------|


   E   E   T  T  S  S  S  S  S  S  S  E   E   
--51--46--44---------------------------------|
------38-----------------------------43------|
----------50-50-48-48-47-47-45-45-43-41------|
---------------------------------------------|
--36-------------------------------------36--|
---------------------------------------------|


   Verso A                                   
   Q       E   S  S  E   E   E   T  T  T  T  
----------42--42-44-42--44--42--42-44-44-42-|
----------38----------------38--------------|
--------------------------------------------|
--49----------------------------------------|
--36----------36----36----------------------|
--------------------------------------------|


   E   S  S  S  S  S  S  S  S  S  S  S  S  T  T  T  T  
--42--42-44-42-44-42-44-42-44-42-44-42-44-44-42-42-44-|
------------38----------------------38----------------|
------------------------------------------------------|
------------------------------------------------------|
--36--------------36----36-------36-------------------|
------------------------------------------------------|


   E   E   E   T  T  S  E   S  S  E   S  S  
--42--44--42--44-42-44-42--46-44-42--44-42-|
----------38---------------------38--------|
-------------------------------------------|
-------------------------------------------|
--36----------36-------36------------36----|
-------------------------------------------|


   E   S  S  E   S  S  E   E      Q     
--44--46-44-42--44-42-44--44-----44----|
------------38----------------38g38----|
---------------------------------------|
---------------------------------------|
--36------------36----36---------------|
---------------------------------------|


   Q     E   T  T  S  E   E   S  S  T  T  T  T  
--------42--42-42-46-42--44--42-44-42-42-44-42-|
--------38-------------------38----------------|
-----------------------------------------------|
--57-------------------------------------------|
--36--------36-------36------------------------|
-----------------------------------------------|


   E   S  S  E   S  S  S  S  S  S  S  S  S  S  
--44--42-44-42--46-44-42-44-42-44-42-44-46-44-|
------------38--------------------38----------|
----------------------------------------------|
----------------------------------------------|
--36------------36----36-------36-------------|
----------------------------------------------|


   E   S  S  E   S  S  S  S  S  S  S  S  S  S  
--42--44-42-44--42-44-42-44-42-44-42-44-42-44-|
------------38--------------------38----------|
----------------------------------------------|
----------------------------------------------|
--36------------36----36----------------------|
----------------------------------------------|


   E   T  T  S  E   E   S  S  E      E   S  S  
--42------------------------------------------|
---------------------------------38g38--------|
------48-48-47-47--45--45-45-43---------43-41-|
----------------------------------------------|
--36------------------------------------------|
----------------------------------------------|


   Puente                                                              
   Q      E   E   E   E   E   E      E   S  S  E   E   E   E   E   E   
---------51--44--51--44--51--44--|--51--44----51--44--51--44--51--44--|
---------38--------------38------|------------38--------------38------|
---------------------------------|------------------------------------|
--49-----------------------------|------------------------------------|
--36---------36--36----------36--|--36-----36-----36--36--------------|
---------------------------------|------------------------------------|


   E   E   E   E   E   E   E   E      E   E   E   E   S  S  E      E   E   
--51--44--51--44--51--44--51--44--|--51--44--51--44--------44---------44--|
----------38--------------38------|----------38----------------38g38------|
----------------------------------|------------------47-45-43---------43--|
----------------------------------|---------------------------------------|
--36----------36--36--------------|--36-------------------------------36--|
----------------------------------|---------------------------------------|


   Verso B                                
   Q       E   S  S  E   E   E   T  T  S  
----------42--44-42-44--44--42--44-42-44-|
----------38----------------38-----------|
-----------------------------------------|
--49-------------------------------------|
--36----------36----36-------------------|
-----------------------------------------|


   E   S  S  E   S  S  S  S  S  S  E   S  T  T  
--44--42-44-42--44-42-42-44-42-44-42--44-42-44-|
------------38--------------------38-----------|
-----------------------------------------------|
-----------------------------------------------|
--36------------36----36-------36--------------|
-----------------------------------------------|


   E   E   E   S  S  E   S  S  E   S  S  
--42--44--42--42-44-42--42-44-42--44-42-|
----------38------------------38--------|
----------------------------------------|
----------------------------------------|
--36----------36----36------------36----|
----------------------------------------|


   E   S  S  E   S  S  S  S  E      Q     
--44--44-42-44--42-44-42-44--------------|
------------38------------------38g38----|
-----------------------------------45----|
-----------------------------------------|
--36------------36----------36-----------|
-----------------------------------------|


   Q     E   T  T  S  E   T  S. E   T  T  T  T  
--------42--42-46-44-42--42-44-42--42-42-44-42-|
--------38---------------------38--------------|
-----------------------------------------------|
--57-------------------------------------------|
--36--------36-------36------------------------|
-----------------------------------------------|


   E   S  S  E   S  S  S  S  S  S  S  S  T  T  T  T  
--44--42-44-42--42-44-42-44-42-44-42-44-42-44-44-42-|
------------38--------------------38----------------|
----------------------------------------------------|
----------------------------------------------------|
--36------------36----36----------------------------|
----------------------------------------------------|


   E   S  S  E   S  S  S  S  S  S  S  S  S  S  
--42--46-44-42--42-44-42-44-42-44-42-44-42-44-|
------------38--------------------38----------|
----------------------------------------------|
----------------------------------------------|
--36------------36----36----------------------|
----------------------------------------------|


   E   T  T  S  E   E   S  S  E      E   S  S  
--42------------------------------------------|
---------------------------------38g38--------|
------47-47-45-45--45--45-43-43---------43-41-|
----------------------------------------------|
--36----------------------36------------36----|
----------------------------------------------|


   Pre-Coro                                                              
   Q        E   E   E   E   E   E      E   E   E   E   E   E   E   S  S  
-----------51--51--51--51----------|--51--51--51--51--51--51--51--------|
-----------38--------------47--45--|----------38--------------38--------|
---------------------------45--43--|------------------------------45-43-|
--49-------------------------------|------------------------------------|
--36-----------36------36----------|------36----------36--36------36----|
-----------------------------------|------------------------------------|


   E   E   E   E   E   E   E   E      E   E   E   E   E   E   E   S  S  
------51--51--51--51--51--51--51--|--51--51--51--51--51--46--42--------|
----------38--------------38------|----------38--------------38--------|
----------------------------------|------------------------------45-43-|
--57------------------------------|------------------------------------|
--36----------36--36--------------|--36--36----------36--36------36----|
----------------------------------|------------------------------------|


   Q     E   E   E   E   E   E      E   S  S  E   E   E   E   E   S  S  
--------51--51--51--51----------|--51--51----51--51--51--51--51--------|
--------38--------------47--45--|------------38--------------38--------|
------------------------45--43--|--------------------------------45-43-|
--49----------------------------|--------------------------------------|
--36--------36--36--------------|--36-----36-----36--36----------36----|
--------------------------------|--------------------------------------|


   Q     E   E   E   E   E   E      E   S  S  E   S  S  E   S  S  E   E   
--------51--51--51--51--51--51--|--51--51--------------------------------|
--------38--------------38------|--38-----38-38-----38-38--38------------|
--------------------------------|--43-------------------------47-45--43--|
--57----------------------------|----------------------------------------|
--36--------36--36--36------36--|----------------36--------36------------|
--------------------------------|----------------------------------------|


   Coro                                                             
   Q     E   E   E   E   E   E      E   E   E   E   E   E   E   E   
--------51--44--51--44--51--44--|--51--44--51--44--51--44--51--44--|
--------38--------------38------|----------38--------------38------|
--------------------------------|----------------------------------|
--49----------------------------|----------------------------------|
--36--------36--36--36----------|--36----------36--36--------------|
--------------------------------|----------------------------------|


   E   S  S  E   E   E   E   E   E      E   E   E   E   E   E   E   S  S  
--51--44----51--44--51--44--51--44--|--51--44--51--44--51--44--51--44----|
------------38--------------38------|----------38--------------38--------|
------------------------------------|------------------------------45-43-|
------------------------------------|------------------------------------|
--36-----36-----36--36--36------36--|--36--------------36----------------|
------------------------------------|------------------------------------|


   Q     E   E   E   E   E   E      E   S  S  E   E   E   E   E   E   
--------51--44--51--44--51--44--|--51--44----51--44--51--44--51--44--|
--------38--------------38------|------------38--------------38------|
--------------------------------|------------------------------------|
--57----------------------------|------------------------------------|
--36--------36--36--------------|--36-----36-----36------36----------|
--------------------------------|------------------------------------|


   E   E   E   E   E   E   E   E      E   E   E   E   E   E   E   S  S  
--51--44--51--44--51--44--51--44--|--59--59--59--59--59--59--59--59----|
----------38--------------38------|----------38--------------38--------|
----------------------------------|------------------------------45-43-|
----------------------------------|----------49--------------57--------|
--36----------36--36----------36--|--36--------------36--36------------|
----------------------------------|------------------------------------|


   Q     E   E   E   E   E   E      E   E   E   E   E   E   E   E   
--------51--44--51--44--51--44--|--51--44--51--44--51--44--51--44--|
--------38--------------38------|----------38--------------38------|
--------------------------------|----------------------------------|
--49----------------------------|----------------------------------|
--36----------------36----------|--36----------36--36--------------|
--------------------------------|----------------------------------|


   E   S  S  E   E   E   E   E   S  S     E   E   E   E   E   E   E   E   
--51--44----51--44--51--44--51--44----|--51--44--51--44--51--44--51--44--|
------------38--------------38--------|----------38--------------38------|
--------------------------------45-43-|----------------------------------|
--------------------------------------|----------------------------------|
--36-----36-----36--36--36------------|--36----------36--36--36------36--|
--------------------------------------|----------------------------------|


   Q     E   E   E   E   E   E      E   E   E   E   E   E   E   E   
--------51--44--51--44--51--44--|--51--44--51--44--51--51--51--51--|
--------38--------------38------|----------38--------------38------|
--------------------------------|----------------------------------|
--57----------------------------|----------------------------------|
--36--------36--36--------------|--36----------36--36--------------|
--------------------------------|----------------------------------|


   Q     E   E   E   S  S  E   E      Q     Q     Q     Q     
--------51--44--51----------------|--44----44----44----44----|
--------38----------38-38-38--38--|--------------------------|
----------------------------------|--57----------------------|
--49------------------------------|--49----------------------|
--36--------36--36------------36--|--36----------------------|
----------------------------------|--------------------------|


   Break                                                    
   |----3---|                    |--3--|                    
   S     S  S  S  S  S  S  S  S  S  S  S  S  S  S  S  S  S  
--44----------------44----------44-------------44----------|
-----------------------------------------------------------|
--47----47-47-47-45-43-43-43-43-45-45-45-45-43-41-41-41-41-|
-----------------------------------------------------------|
-----------------------------------------------------------|
-----------------------------------------------------------|


   |--3--|                    |--3--|                    
   S  S  S  S  S  S  S  S  S  S  S  S  S  S  S  S  S  S  
--44-------------44----------44-------------44----------|
--------------------------------------------------------|
--47-47-47-47-45-43-43-43-43-45-45-45-45-43-41-41-41-41-|
--------------------------------------------------------|
--------------------------------------------------------|
--------------------------------------------------------|


   |--3--|                    |--3--|                    
   S  S  S  S  S  S  S  S  S  S  S  S  S  S  S  S  S  S  
--44-------------44----------44-------------44----------|
--------------------------------------------------------|
--47-47-47-47-45-43-43-43-43-45-45-45-45-43-41-41-41-41-|
--------------------------------------------------------|
--------------------------------------------------------|
--------------------------------------------------------|


   |--3--|                                            
   S  S  S  S  S  S  S  S  S  S  S  S  S  S  S  S  S  
--44-------------44----------------------------------|
--------------------------38-38-38-38-38-38-38-38-38-|
--47-47-47-47-45-43-43-43-------40-40-40-40----------|
-----------------------------------------------------|
-----------------------------------------------------|
-----------------------------------------------------|


   Riff B                                   
   E      E   S  S  E   S  S  E   S  S  E   
---------59--59----59--59----59--59----59--|
---------38--------38--------38--------38--|
-------------------------------------------|
--49---------------------------------------|
--36------------36--------36-----36-36-----|
-------------------------------------------|


   E   S  S  S  S  E   S  S  E   S  S  E   
--59--59----59----59--59----59--59----59--|
------38----------38--------38--------38--|
------------------------------------------|
------------------------------------------|
--36-----36----36-----36-36-----36-36-----|
------------------------------------------|


   E   S  S  S  S  E   E   E   S  S  E   
------59----59----59--59--59--59----59--|
------38----------38------38--------38--|
----------------------------------------|
--57------------------------------------|
--36-----36----36----------------36-----|
----------------------------------------|


   E   S  S  S  S  E   S  S  E   S  S  S  S  
--59--59----59----59--59----59--59----59----|
------38----------38--------38--------38-38-|
--------------------------------------------|
--------------------------------------------|
--36-----36----36--------36-----36-36-------|
--------------------------------------------|


   E   S  S  S  S  E   S  S  E   S  S  E   
------59----59----59--59----59--59----59--|
------38----------38--------38--------38--|
------------------------------------------|
--49--------------------------------------|
--36-----36----36--------36-----36-36-----|
------------------------------------------|


   E   S  S  S  S  E   S  S  E   S  S  S  S  
--59--59----59----59--59----59--59----59----|
------38----------38--------38--------38-38-|
--------------------------------------------|
--------------------------------------------|
--36-----36----36--------36-----36-36-------|
--------------------------------------------|


   E   S  S  S  S  E   S  S  E   S  S  E   
--59--59----59----59--59----59--59----59--|
------38----------38--------38--------38--|
------------------------------------------|
------------------------------------------|
--36-----36----36--------36-----36-36-----|
------------------------------------------|


   E   S  S  S  S  E   T  T  T  T  E   T  T  T  T  E   
--59--59----59----59----------------------------------|
------38----------38--------------38--------------38--|
----------------------45-45-45-45-----45-45-45-45-----|
------------------------------------------------------|
--36-----36----36-------------------------------------|
------------------------------------------------------|


   Interludio 1                                     
   E            S  S  S  S  E   E   E   S  S  S  S  
---------------59----59----59--59--59--59----59----|
---------------38----------38------38--------38-38-|
---------------------------------------------------|
--49-----------------------------------------------|
--36--------------36----36----------------36-------|
---------------------------------------------------|


   E   S  S  S  S  E   S  S  E   T  T  T  T  E   
------59----59--------59----59------------------|
------38----------38--------38------------------|
--------------------------------48-47-45-43-41--|
--57-----49-------55----------------------------|
--36-----36----36--------36-----------------36--|
------------------------------------------------|


   E   S  S  S  S  E   E   E   S  S  E   
------59----59----59--59--59--59----59--|
------38----------38------38--------38--|
----------------------------------------|
--49------------------------------------|
--36-----36----36-------------36-36-----|
----------------------------------------|


   E   S  S  S  S  E   T  T  T  T  E   T  T  T  T  E   
--59--59----59----59----------------------------------|
------38----------38-----------38-38-----------38-38--|
----------------------47-47-47--------47-47-47--------|
------------------------------------------------------|
--36-----36----36-------------------------------------|
------------------------------------------------------|


   Riff B                                   
   E      S  S  S  S  E   E   E   S  S  E   
---------59----59----59--59--59--59----59--|
---------38----------38------38--------38--|
-------------------------------------------|
--49---------------------------------------|
--36--------36----36-------------36-36-----|
-------------------------------------------|


   E   S  S  S  S  E   S  S  E   S  S  E   
--59--59----59----59--59----59--59----59--|
------38----------38--------38--------38--|
------------------------------------------|
------------------------------------------|
--36-----36----36-----36-36-----36-36-----|
------------------------------------------|


   E   S  S  S  S  E   E   E   S  S  E   
--59--59----59----59--59--59--59----59--|
------38----------38------38--------38--|
----------------------------------------|
----------------------------------------|
--36-----36----36-------------36-36-----|
----------------------------------------|


   E   S  S  S  S  E   E   E   T  T  T  T  E   
--59--59----59----59--59--59------------------|
------38----------38------38------------------|
------------------------------48-47-45-43-41--|
----------------------------------------------|
--36-----36----36-----------------------------|
----------------------------------------------|


   Interludio 1                                       
   E            S  S  S  S  E   S  S  S  S  S  S  E   
---------------59----59----59--51-51----51-51----51--|
---------------38----------38--------38----------38--|
-----------------------------------------------------|
--49-------------------------------------------------|
--36--------------36----36--------------------36-----|
-----------------------------------------------------|


   E   S  E   S  E   E   E   T  T  T  T  E   
--51--51-51--51-51--51--51------------------|
------38--------38------38------------------|
----------------------------50-48-47-45-43--|
--57----------------------------------------|
--36-----36--36-----------------------------|
--------------------------------------------|


   E   S  S  S  S  E   E   E   E   S  S  
------59----59----59--59--59--59--59----|
------38----------38------38------38-38-|
----------------------------------------|
--57------------------------------------|
--36-----36----36-----------------------|
----------------------------------------|


   E   S  S  S  S  E   S  S  S  S  S  S  S  S  
--59--59----59----59--------------------------|
------38----------38--------------------------|
----------------------50-50-48-48-47-47-45-45-|
----------------------------------------------|
--36-----36----36-----------------------------|
----------------------------------------------|


   Interludio 2a                                 
   E             S  S  S  S  E   E   E   E   E   
----------------51----51----51--51--51--51--51--|
----------------38----------38------38------38--|
------------------------------------------------|
--49--------------------------------------------|
--36---------------36----36---------------------|
------------------------------------------------|


   E   S  S  S  T  T  E   S  S  E   E   E   
--51--51----51-------51--51----51--51--51--|
------38-------------38--------38------38--|
-------------------------------------------|
-------------------------------------------|
--36-----36----36-36--------36-------------|
-------------------------------------------|


   E   S  S  S  S  E   E   E   E   E   
--51--51----51----51--51--51--51--51--|
------38----------38------38------38--|
--------------------------------------|
--------------------------------------|
--36-----36----36---------------------|
--------------------------------------|


   E   S  S  S  S  E   E   E   T  T  T  T  E   
--51--51----51----51--51--51------------------|
------38----------38------38------------------|
------------------------------47-47-45-45-43--|
----------------------------------------------|
--36-----36----36-----------------------------|
----------------------------------------------|


   Interludio 2b                                 
   E             S  S  S  S  E   E   E   E   E   
----------------51----51----51--51--51--51--51--|
----------------38----------38------38------38--|
------------------------------------------------|
--57--------------------------------------------|
--36---------------36----36---------------------|
------------------------------------------------|


   E   S  S  S  T  T  E   E   E   E   E   
--51--51----51-------51--51--51--51--51--|
------38-------------38------38------38--|
-----------------------------------------|
-----------------------------------------|
--36-----36----36-36---------------------|
-----------------------------------------|


   E   S  S  S  S  E   E   E   E   E   
------51----51----51--51--51--51--51--|
------38----------38------38------38--|
--------------------------------------|
--49----------------------------------|
--36-----36----36---------------------|
--------------------------------------|


   E   S  S  S  S  E   E   E   E   S  T  T  
------51----51----51--51--51--51--51-------|
------38----------38------38------38-------|
-------------------------------------47-47-|
--57---------------------------------------|
--36-----36----36--------------------------|
-------------------------------------------|


   Puente                                        
   Q      S  S  T  T  S  S  S  S  S  S  S  S  S  
---------44-------------44----------44----------|
--38--------------------------------------------|
--43-----------------45-45----------------------|
--49-----41-41-41-41-41-41-41-41-41-41-41-41-41-|
------------------------------------------------|
------------------------------------------------|


   S  S  S  S  S  S  S  S  S  S  S  S  S  S  S  S  
--44----------44----------44----------44----------|
--------------------------------------------------|
--45----------47-------47-45----------47-------47-|
--41-41-41-41-41-41-41-41-41-41-41-41-41-41-41-41-|
--------------------------------------------------|
--------------------------------------------------|


   S  S  S  S  S  S  S  S  S  S  S  S  S  S  S  S  
--44----------44----------44----------44----------|
--------------------------------------------------|
--45----------47----47-47-45----------47----47-47-|
--41-41-41-41-41-41-41-41-41-41-41-41-41-41-41-41-|
--------------------------------------------------|
--------------------------------------------------|


   S  S  S  S  S  S  S  S  S  S  S  S  S  S  S  S  
--44----------44----------44----------44----------|
--------------------------------------------------|
--45-45-45-45-45-45-45-45-43-43-43-43-41-41-41-41-|
--41-41-41-41-41-41-------------------------------|
--------------------------------------------------|
--------------------------------------------------|


   Coro                                            
   Q     S  S  S  S  S  S  S  S  S  S  T  T  T  T  
--------42-44-42-44-42-44-42-46-44-42-44-42-42-44-|
--------38----------------------38----------------|
--------------------------------------------------|
--49----------------------------------------------|
--36----------36----36----------------36----------|
--------------------------------------------------|


   E   S  S  S  S  S  S  S  S  S  S  S  S  T  T  T  T  
--44--42-44-46-44-42-44-42-44-42-44-42-44-44-42-42-44-|
------------38----------------------38----------------|
------------------------------------------------------|
------------------------------------------------------|
--36--------------36----36-------36-------36----------|
------------------------------------------------------|


   E   S  S  S  S  S  S  S  S  S  S  S  S  S  S  
--42--46-44-42-44-42-44-42-44-46-44-42-44-42-44-|
------------38----------------------38----------|
------------------------------------------------|
------------------------------------------------|
--36--------------36----36----------------36----|
------------------------------------------------|


   Solo Adrian Smith                                                    
   S                 S  S  S  S  S  S  S  S  S  S  S  S  S  T  T  T  T  
--42----------------44-46-44-42-44-42-44-42-44-46-44-42-44-44-42-42-44-|
-----------------------------38----------------------38----------------|
-----------------------------------------------------------------------|
-----------------------------------------------------------------------|
--36-------------------------------36----36-------36-------------------|
-----------------------------------------------------------------------|


   E   S  S  S  S  S  S  S  S  S  S  S  S  T  T  T  T  
--44--42-44-42-44-42-44-42-44-42-44-42-44-44-42-42-44-|
------------38----------------------38----------------|
------------------------------------------------------|
------------------------------------------------------|
--36--------------36----36----------------------------|
------------------------------------------------------|


   E   S  S  S  S  S  S  S  S  S  S  S  S  S  S  
--44--42-44-46-44-42-44-42-44-42-44-42-44-42-46-|
------------38----------------------38----------|
------------------------------------------------|
------------------------------------------------|
--36--------------36----36-------36-------------|
------------------------------------------------|


   E.   S  S  S  S  S  S  S  S  S  S  S  T  T  T  T  
--44---44-42-44-42-44-42-44-42-44-42-44-44-42-42-44-|
----------38----------------------38----------------|
----------------------------------------------------|
----------------------------------------------------|
--36------------36----36----------------------------|
----------------------------------------------------|


   S  S  S  S  S  S  T  T  S  S  S  T  T  S  E   S  S  
--42-44-46-44-42-44-46-46-46-46-44--------------------|
--------------38-------------------38-38-38-38--------|
------------------------------------------------47-45-|
------------------------------------------------------|
--36----------------36-------36-------------36--------|
------------------------------------------------------|


   Q     S  S  S  S  S  S  S  S  S  S  T  T  T  T  
--------42-44-42-44-42-44-42-46-44-42-44-42-42-44-|
--------38----------------------38----------------|
--------------------------------------------------|
--57----------------------------------------------|
--36----------36----36----------------------------|
--------------------------------------------------|


   E   S  S  S  S  S  S  S  S  S  S  S  S  T  T  T  T  
--44--42-44-46-44-42-44-42-44-42-44-42-44-42-46-46-46-|
------------38----------------------38----------------|
------------------------------------------------------|
------------------------------------------------------|
--36--------------36----36-------36-------36----------|
------------------------------------------------------|


   E   S  S  S  S  S  S  S  S  S  S  S  S  S  S  
--44--42-44-46-44-42-44-42-44-42-44-46-44-42-44-|
------------38----------------------38----------|
------------------------------------------------|
------------------------------------------------|
--36--------------36----36----------------36----|
------------------------------------------------|


   S  S  S  S  S  S  S  S  S  S  S  S  S  S  T  T  T  T  
--42-44-42-44-46-44-42-44-42-44-42-44-46-44-44-46-46-46-|
--------------38----------------------38----------------|
--------------------------------------------------------|
--------------------------------------------------------|
--36----------------36----36-36-36----------------------|
--------------------------------------------------------|


   E   S  S  S  S  T  T  S  S  S  S  S  S  S  S  S  
--42--42-44-46-44-42-42-44-42-44-42-44-46-44-42-44-|
------------38-------------------------38----------|
---------------------------------------------------|
---------------------------------------------------|
--36--------------36-------36----------------36----|
---------------------------------------------------|


   S  S  S  S  S  S  S  S  S  S  S  S  S  S  T  T  T  T  
--42-44-42-44-46-44-42-44-42-44-44-46-42-44-46-46-46-46-|
--------------38----------------------38----------------|
--------------------------------------------------------|
--------------------------------------------------------|
--36----------------36----36----------------------------|
--------------------------------------------------------|


   E   S  S  S  S  T  T  T  T  S  S  S  S  S  S  S  S  
--42--42-44-46-44-46-46-46-46-46-44-42-44-46-42-44-46-|
------------38----------------------------38----------|
------------------------------------------------------|
------------------------------------------------------|
--36--------------36----------36----------------------|
------------------------------------------------------|


   E   S  S  S  S  S  S  S  S  S  S  E   S  S  
--42------------------------------------------|
----------------------------------------------|
------50-50-48-48-47-47-45-45-43-43-41--43-41-|
----------------------------------------------|
--36--36----36----36----36----36----36--------|
----------------------------------------------|


   Outro Coro                                  
   Q          E   S  S  E   S  S  E   T  T  S  
-------------59--59-59-59--59-59-59--59-59-59-|
-------------38------------------38-----------|
----------------------------------------------|
--49------------------------------------------|
--36-------------36----36------------36-------|
----------------------------------------------|


   Q     E   E   E   E   E   S  S     E   E   E   S  S  E   E   E   E   
--59----59--44--59--44--59--44----|--59--44--59--59-59-59--59--59--59--|
--------38--------------38--------|----------38----------------38------|
----------------------------------|------------------------------------|
----------------------------------|------------------------------------|
--36--------36--36-------------36-|--36----------36-36-36--36------36--|
----------------------------------|------------------------------------|


   E   E   E   S  S  E   E   E   S  S     E   E   E   E   E   E   E   E   
--59--59--59--44----59--44--59--44----|--59--44--59--44--59--44--59--44--|
----------38----------------38--------|----------38--------------38------|
--------------------------------------|----------------------------------|
--------------------------------------|----------------------------------|
--36-------------36-36--36---------36-|--36----------36--36--------------|
--------------------------------------|----------------------------------|


   E   E   E   E   E   E   E   E      E   E   E   E   E   E   E   E   
--59--44--59--44--59--44--59--44--|------44--59--44--59--44--59--44--|
----------38--------------38------|----------38--------------38------|
----------------------------------|------------------------------45--|
----------------------------------|--57------------------------------|
--36----------36--36--------------|--36--------------36--36------36--|
----------------------------------|----------------------------------|


   E   E   E   T  T  S  E   E   E   E      Q     E   E   E   E   E   E   
--59--44--59-----------44--44--59--44--|--------59--44--59--44--59--44--|
----------38-------------------38------|--------38--------------38------|
--------------45-45-43-----------------|--------------------------------|
---------------------------------------|--49----------------------------|
--36-------------------36--36------36--|--36--------36--36--------------|
---------------------------------------|--------------------------------|


   Q     E   E   E   E   E   E      E   E   E   E   E   E   E   E   
--------59--44--59--44--59--44--|--59--44--59--44--59--44--59--44--|
--------38--------------38------|----------38--------------38------|
--------------------------------|----------------------------------|
--57----------------------------|----------------------------------|
--36--------36--36--------------|--36----------36--36--36------36--|
--------------------------------|----------------------------------|


   E   E   E   E   E   E   E   S  S     E   E   E   E   E   E   E   E   
--59--44--59--44--59--44--59--44----|--59--44--59--44--59--44--59--44--|
----------38--------------38--------|----------38--------------38------|
------------------------------45-43-|----------------------------------|
------------------------------------|----------------------------------|
--36--------------36--36------------|--36----------36--36--36----------|
------------------------------------|----------------------------------|


   E   E   E   E   E   E   E   E      E   E   E   E   E   E   E   E   
--59--44--59--44--59--44--59--44--|--59--44--59--44--59--44--59--44--|
----------38--------------38------|----------38--------------38------|
----------------------------------|----------------------------------|
----------------------------------|----------------------------------|
--36----------36--36--------------|--36----------36--36--36------36--|
----------------------------------|----------------------------------|


   Outro                                                      
   W                    W                   W                 
--59----------------|---L----------------|-------------------|
--51----------------|---L----------------|-------------------|
--57----------------|---L----------------|-------------------|
--49----------------|---L----------------|-------------------|
--36----------------|---L----------------|-------------------|
--------------------|--------------------|-------------------|



  W                  
-------------------||
-------------------||
-------------------||
-------------------||
-------------------||
-------------------||




Intro Song:


          Intro                                                     
     S    W                   W                   W                 
C||----|-------------------|-------------------|-------------------|
C||----|-------------------|-------------------|-------------------|
C||----|-------------------|-------------------|-------------------|
C||----|-------------------|-------------------|-------------------|
C||----|-------------------|-------------------|-------------------|
C||----|-------------------|-------------------|-------------------|


  W                   H         T  T  T  T  T  T  T  T  T  T  T  T  T  T  T  T  
-------------------|-----------82-82-82-82-82-82-82-82-82-82-82-82-82-82-82-82-|
-------------------|-----------69-69-69-69-69-69-69-69-69-69-69-69-69-69-69-69-|
-------------------|-----------------------------------------------------------|
-------------------|-----------------------------------------------------------|
-------------------|-----------------------------------------------------------|
-------------------|-----------------------------------------------------------|


   |--3--|  |--3--|  |--3--|  |--3--|  |--3--|  |--3--|              
   S  S  S  S  S  S  S  S  S  S  S  S  S  S  S  S  S  S  S  S  S  S  
--82-82-82-82-82-82-82-82-82-82-82-82-82-82-82-82-82-82-82-82-82-82-|
--69-69-69-69-69-69-69-69-69-69-69-69-69-69-69-69-69-69-69-69-69-69-|
--------------------------------------------------------------------|
--------------------------------------------------------------------|
--------------------------------------------------------------------|
--------------------------------------------------------------------|


                                                  Verso             
   S  S  S  S H.              W                   W                 
--82-82-82-82--------------|-------------------|-------------------|
--69-69-69-69--------------|-------------------|-------------------|
---------------------------|-------------------|-------------------|
---------------------------|-------------------|-------------------|
---------------------------|-------------------|-------------------|
---------------------------|-------------------|-------------------|


  W                   W                   W                   W                 
-------------------|-------------------|-------------------|-------------------|
-------------------|-------------------|-------------------|-------------------|
-------------------|-------------------|-------------------|-------------------|
-------------------|-------------------|-------------------|-------------------|
-------------------|-------------------|-------------------|-------------------|
-------------------|-------------------|-------------------|-------------------|


  W                   W                   W                 
-------------------|-------------------|-------------------|
-------------------|-------------------|-------------------|
-------------------|-------------------|-------------------|
-------------------|-------------------|-------------------|
-------------------|-------------------|-------------------|
-------------------|-------------------|-------------------|


                                       |--3--|  
  H        E   T  T  T  T  T  T  T  T  S  S  S  
--------------82-82-82-82-82-82-82-82-82-82-82-|
--------------69-69-69-69-69-69-69-69-69-69-69-|
-----------------------------------------------|
-----------------------------------------------|
-----------------------------------------------|
-----------------------------------------------|


   |--3--|  |--3--|                                                       
   S  S  S  S  S  S H.              W                   W                 
--82-82-82-82-82-82--------------|-------------------|-------------------|
--69-69-69-69-69-69--------------|-------------------|-------------------|
---------------------------------|-------------------|-------------------|
---------------------------------|-------------------|-------------------|
---------------------------------|-------------------|-------------------|
---------------------------------|-------------------|-------------------|


  W                   W                 
-------------------|-------------------|
-------------------|-------------------|
-------------------|-------------------|
-------------------|-------------------|
-------------------|-------------------|
-------------------|-------------------|


        |---3---|         |--3--|  |--3--|  |--3--|  
  Q     E   E   E   S  S  S  S  S  S  S  S  S  S  S  
-------82--82--82--82-82-82-82-82-82-82-82-82-82-82-|
-------69--69--69--69-69-69-69-69-69-69-69-69-69-69-|
----------------------------------------------------|
----------------------------------------------------|
----------------------------------------------------|
----------------------------------------------------|


   |--3--|                                                                  
   S  S  S  S  S  S  S E  H           W                   W                 
--82-82-82-82-82-82-82-------------|-------------------|-------------------|
--69-69-69-69-69-69-69-------------|-------------------|-------------------|
-----------------------------------|-------------------|-------------------|
-----------------------------------|-------------------|-------------------|
-----------------------------------|-------------------|-------------------|
-----------------------------------|-------------------|-------------------|




Drums Legend:
---------------
Drums:

31...Sticks
37...Side Stick
38...Snare
40...Electric Snare
35...Acoustic Bass Drum
36...Bass Drum
41...Low Floor Tom
43...High Floor Tom
45...Low Tom
47...Low-Mid Tom
48...Hi-Mid Tom
50...High Tom


Cymbals:

42...Closed Hi Hat
44...Pedal Hi Hat
46...Open Hi Hat
49...Crash Cymbal 1
51...Ride Cymbal 1
52...Chinese Cymbal
55...Splash Cymbal
57...Crash Cymbal 2
59...Ride Cymbal 2


Others:

27...High Q
28...Slap
29...Scratch Push
30...Scratch Pull
32...Square Click
33...Metronome Click
34...Metronome Bell
39...Hand Clap
53...Ride Bell
54...Tambourine
56...Cowbell
58...Vibraslap
60...High Bongo
61...Low Bongo
62...Mute High Conga
63...Open High Conga
64...Low Conga
65...High Timbale
66...Low Timbale
67...High Agogo
68...Low Agogo
69...Cabasa
70...Maracas
71...Short Whistle
72...Long Whistle
73...Short Guiro
74...Long Guiro
75...Claves
76...High Wood Block
77...Low Wood Block
78...Mute Cuica
79...Open Cuica
80...Mute Triangle
81...Open Triangle
82...Shaker
83...Jingle Bell
84...Bell Tree
85...Castinets
86...Mute Surdo
87...Open Surdo



Duration Legend
---------------
W - whole
H - half
Q - quarter
E - 8th
S - 16th
T - 32nd
X - 64th
. - note dotted
|-n-|  - n-tuplets



Tablature Legend
----------------
L - tied note
x - dead note
g - grace note
(n) - ghost note
> - accentuded note
NH - natural harmonic
AH - artificial harmonic
TH - tapped harmonic
SH - semi harmonic
PH - pitch harmonic
h - hammer on
p - pull off
b - bend
br - bendRelease
pb - preBend
pbr - preBendRelease
brb - bendReleaseBend
\n/ - tremolo bar dip
\n - tremolo bar dive
-/n - tremolo bar Release up
/n\ - tremolo bar inverted dip
/n - tremolo bar return
-\n - tremolo bar Release down
S - shift slide
s - legato slide
/ -  slide into from below or out of upwards
\ -  slide into from above or out of downwards
~ - vibrato
W - wide vibrato
tr - trill
TP - tremolo picking
T - tapping
S - slap
P - pop
< - fade in
^ - brush up
v - brush down

            
            
Suggest correction
Creating personal tab
Creating personal tab
You can edit any tab online and save it as your Personal.

You can edit, replace or remove any tab part or add personal notes – all changes will be seen only by you.

Personal tabs can be accessed anytime from any device, even offline.
Learn more »
comments
print report bad tab
guest
You may want to rate the tab now too:
select rating
Wanna post a correction for this tab? Suggest correction