Oops, an error
Loading. Please wait.

Journeyman tab

version 3
version 3

Whole song

Interactive

514 views 6 this week
1 commentread comment
1 2 3 4 5
3 more votes to show rating
add to favorites
×
Save as Personal and add changes to this tab that will be seen only by you. Learn more ›
×
You can save this tab as Personal to edit and correct it or add notes. All changes will be seen only by you. Learn more »
launch autoscroll
font size
0
reset
how to read this tab
guitar tuner
backing track
0:00
0:00
edit
Autoscroll
slow
fast
+/-
esc
set tempo
stop
Author
Difficulty
INTRO, Part 1 (x2):

Guitar 1:
|---------------------------------------------------|
|--1-----1-----0-----0-----3-----3-----1-----1------|
|----2-----2-----2-----2-----2-----2-----2-----2----|
|---------------------------------------------------|
|------0-----0-----0-----0-----0-----0-----0-----0--|
|---------------------------------------------------|

INTRO, Part 2 (x4):

Guitar 1:
|---------------------------------------------------|
|--1-----1-----0-----0-----3-----3-----1-----1------|
|----2-----2-----2-----2-----2-----2-----2-----2----|
|---------------------------------------------------|
|------0-----0-----0-----0-----0-----0-----0-----0--|
|---------------------------------------------------|

Guitar 2:
|--Am----------Aadd9------Asus4-------Am------------|

Guitar 1:
|--0-----0------------------------------------------|
|--------------3-----3-----1-----1-----0-----0------|
|----2-----2-----2-----2-----2-----2-----2-----2----|
|------3-----3-----3-----3--------------------------|
|---------------------------------------------------|
|------------------------------3-----3-----3-----3--|

Guitar 2: (don't know the chord names)
|--Fmaj7-------x-----------0-----------0------------|
|--------------3-----------1-----------0------------|
|--------------2-----------2-----------2------------|
|--------------3-----------0-----------0------------|
|--------------x-----------x-----------x------------|
|--------------x-----------3-----------3------------|

Note: Guitar 1 plays three strings separately and guitar 2 plays a chord, when the first
is played, guitar two also plays the full chord

VERSE 1:

Before the lyrics both guitars play the chords F and then A twice. It is with the same
as with lyrics. Adrian plays the normal chords and Dave plays barre chords.
[ Tab from: http://www.guitaretab.com/i/iron-maiden/47220.html ]
F                                    A
From the red sky of the east, To the sunset in the west
F                                           A
We have cheated death and he has cheated us
F                                    A
But that was just a dream, And this is what it means
F                                           A
We are sleeping and we'll dream for evermore

PRE-CHORUS 1:

C                   D                A  Asus4  A
And the fragment remains of our memories
C                   D                G
And the shadows we made with our hands
C                   D                C                  G
Deeper grey, come to mourn. All the colours of the dawn
C                                    A  Asus4  A
Will this Journeyman’s day be his last?

CHORUS (x4):

Dm                       F
I know what I want and I say what I want
C                        A#   C
And no one can take it away.

Live Solo:

|-------------------------------10-12-13--12-10-12-10---10---------------9-|
|-----------------------------------------------------13--13-12-13-12-10---|
|---7-9/10--10-9-7-6---7/9-------------------------------------------------|
|--7------------------------7----------------------------------------------|
|--------------------------------------------------------------------------|
|--------------------------------------------------------------------------|

|--12p9--------9-12p9------------------------------------------------------|
|------10---10--------10---------------------------------------------------|
|---------9--------------9-------------------------------------------------|
|--------------------------12-11-------------------------------------------|
|--------------------------------12----------------------------------------|
|--------------------------------------------------------------------------|


VERSE 2:

F                                       A
But the memory still remains. All those past years not so strange
F                                           A
Our winter times are like a silent shroud
F                                  A
And the heartbeat of the day drives the mist away
F                                       A
And winter's not the only dream around

PRE-CHORUS 2:
C                       D               A  Asus4  A
In your life you may choose desolation
C                   D                 G
And the shadows you build with your hands
C                       D               C              G
If you turn to the light, that is burning in the night
C                   D                A  Asus4  A
Then this Journeyman's day has begun

CHORUS x4

INTRO, part 2

PRE CHORUS 3:
C                       D               A  Asus4  A
In your life you may choose desolation
C                  D                G
And the shadows we build with our hands
C                       D               C              G
If you turn to the light, that is burning in the night
C                  D                 A  Asus4  A
Then this Journeyman's day has begun

CHORUS x4

-----------------------------------------------------------------

CHORDS:

     Am   Aadd9  Dm  Asus4      Fmaj7   F    A    C    D     A# (Bb)
|----0------0----1-----0---------0------1----0----0----2-----1--|
|----1------0----3-----3---------1------1----2----1----3-----3--|
|----2------2----2-----2---------2------2----2----0----2-----3--|
|----2------2----0-----2---------3------3----2----2----0-----3--|
|----0------0----x-----0---------x------x----0----3----x-----1--|
|----x------x----x-----x---------x------x----x----x----x-----1--|

     A (Barre)      F (Barre) G    G
|----5--------------1---------3----3--|
|----5--------------1---------3----0--|
|----6--------------2---------0----0--|
|----7--------------3---------0----0--|
|----7--------------3---------2----2--|
|----5--------------1---------3----3--|
                              \----/

            
            
Suggest correction
Creating personal tab
Creating personal tab
You can edit any tab online and save it as your Personal.

You can edit, replace or remove any tab part or add personal notes – all changes will be seen only by you.

Personal tabs can be accessed anytime from any device, even offline.
Learn more »
Give kudos to tab author, rate the tab!
1 2 3 4 5
comments
print report bad tab
1 comment total.
0 reply
Punkwithcolor 100 Mar 18, 2013 04:12 PM

This is what I tab (the music): http://www.youtube.com/watch?v=Ir1bsNgHr0Q

guest
You may want to rate the tab now too:
select rating
Wanna post a correction for this tab? Suggest correction