Oops, an error
Loading. Please wait.

Losfer Words tab

version 1
version 1

Whole song

Interactive

7,371 views 6 this week
3 commentsread comments
1 2 3 4 5
x 7
add to favorites
×
Save as Personal and add changes to this tab that will be seen only by you. Learn more ›
×
You can save this tab as Personal to edit and correct it or add notes. All changes will be seen only by you. Learn more »
launch autoscroll
font size
0
reset
how to read this tab
guitar tuner
backing track
0:00
0:00
edit
Autoscroll
slow
fast
+/-
esc
set tempo
stop
Losfer Words
by Iron Maiden

Transcribed by Rob Schenk

Intro

--------------------------------------------|
--------------------------------------------|
--------------------------------------------|
--------------------------------------------|
-000-12-00-10-00-9-00-10-00-9-00-7-00-3-2-3-|
--------------------------------------------|

--------------------------------------------|
--------------------------------------------|
--------------------------------------5-5-5-|
--------------------------------------5-5-5-|
-000-12-00-10-00-9-00-10-00-9-00------3-3-3-|
--------------------------------------------|

----------------------------------------------|
----------------------------------------------|
----------------------------------------------|
----------------------------------------------|
--------5-5-5---------------------------5-5-5-|
-000000-3-3-3-000000-5-5-5-5-3-2-000000-3-3-3-|

--------------------------------------------|
--------------------------------------------|
--------9-9-9-9-----------------------------|
--------7-7-7-7-----------------------------|
--------------------------------------------|
-000000-------------------------------------|

Theme 1

----12-12-13-15-13-12-----14-14-14-15-15-15-17-17-17-17p15p14-|
-13-------------------15--------------------------------------|
--------------------------------------------------------------|
--------------------------------------------------------------|
--------------------------------------------------------------|
--------------------------------------------------------------|

--------------------------------------------|
-16-/11-11-13-13/15-13----------------------|
--------------------------------------------|
--------------------------------------------|
--------------------------------------------|
--------------------------------------------|

Theme 2 (play under solo also)

-------------------------------------------------|
-------------------------------------------------|
-------------------------------------------------|
-5p4p0-5p4p0-5p4p0-5p4p0-7p5p0-7p5p0-7p5p0-7p5p0-|
-------------------------------------------------|
-------------------------------------------------|

----------------------------------------------|
----------------------------------------------|
-8----3---3-5-7-5-----------------------------|
-8----3---3-5-7-5-----------------------------|
-6----1---1-3-5-3-----------------------------|
----------------------------------------------|

Theme 3 (repeat)

-12-00-7-00-8-00-5-00-7-00-3-00-5-00-2-----|
-------------------------------------------|
-------------------------------------------|
-------------------------------------------|
-------------------------------------------|
-------------------------------------------|

Theme 4

-----------------------------------------|
-/11-10v-8-10-8-------/11-10v-8-10-8-----|
----------------8v------------------8----|
-----------------------------------------|
-----------------------------------------|
-----------------------------------------|

-------------------------------------------|
-/13-11v-10-11--------/13-11v-10-11-10-----|
---------------10v--------------------10v--|
-------------------------------------------|
-------------------------------------------|
-------------------------------------------|

Last Fill

----------11bv-------------------------|
-10-11-10------------------------------|
---------------------------------------|
---------------------------------------|
---------------------------------------|
---------------------------------------|

Repeat intro and theme 1

Fill for theme 1 at end

-15p13p12-15p13p12-15p13p12-15p13p12-----|
-----------------------------------------|
-----------------------------------------|
-----------------------------------------|
-----------------------------------------|
-----------------------------------------|

Outro

---------------------------------------------|
-5-3-------3-5-3-------3-5-3-------3-5-3-----|
-----5-3-5-------5-3-5-------5-3-5-------5-3-|
---------------------------------------------|
---------------------------------------------|
---------------------------------------------|

            
            
Suggest correction
Creating personal tab
Creating personal tab
You can edit any tab online and save it as your Personal.

You can edit, replace or remove any tab part or add personal notes – all changes will be seen only by you.

Personal tabs can be accessed anytime from any device, even offline.
Learn more »
comments
print report bad tab
3 comments total.
0 reply
gibson_sg_dude 10 Nov 07, 2006 04:16 AM

wrong, why have you stuck wasted years in the middle of it??

0 reply
KiirkHammett 10 Nov 08, 2007 10:20 AM

Listen to the song and you'll understand why.

0 reply
Philistine 10 Apr 12, 2008 08:09 AM

not the best dude!

guest
Wanna post a correction for this tab? Suggest correction