Oops, an error
Loading. Please wait.

Prowler tab

version 3
version 3
1,027 views 1 this week
no commentswrite comment
1 2 3 4 5
x 4
add to favorites
×
Save as Personal and add changes to this tab that will be seen only by you. Learn more ›
×
You can save this tab as Personal to edit and correct it or add notes. All changes will be seen only by you. Learn more »
launch autoscroll
font size
0
reset
how to read this tab
guitar tuner
backing track
0:00
0:00
edit
Autoscroll
slow
fast
+/-
esc
set tempo
stop
Author
Difficulty
                                    Prowler                                     


                                  Iron Maiden

Instruments:
- G #1
- G #2
- G #3
- Voice Melody
- Chorus


Guitar #1:

Dave Murray

          Intro                                                                 
                                             <                                  
     S    W                   H.             Q       E  E.  E.  E.    E.  S S   
E||----|-------------------|----------------------|----------------------------|
B||----|-------------------|---------------<>5----|-----8---7---8br---7---8-L\-|
G||----|-------------------|----------------------|----------------------------|
D||----|-------------------|----------------------|----------------------------|
A||----|-------------------|----------------------|----------------------------|
E||----|-------------------|----------------------|----------------------------|


                                                           tr                   
  E  E.  E.  E.    E.  S S     E  E.  E.  E.    E  S E     W                    
----------------------------|---------------------------|----------------------|
-----8---7---8br---7---8-L\-|-----8---7---8br---7--8----|----------------------|
----------------------------|------------------------7--|--9(7)----------------|
----------------------------|---------------------------|----------------------|
----------------------------|---------------------------|----------------------|
----------------------------|---------------------------|----------------------|


  E  E.  E.  E.    E.  S S     E  E.  E.  E.    E.  S S   
----------------------------|----------------------------|
-----8---7---8br---7---8-L\-|-----8---7---8br---7---8-L\-|
----------------------------|----------------------------|
----------------------------|----------------------------|
----------------------------|----------------------------|
----------------------------|----------------------------|


                              tr                   
  E  E.  E.  E.    E  S E     W                    
---------------------------|----------------------|
-----8---7---8br---7--8----|----------------------|
------------------------7--|--9(7)----------------|
---------------------------|----------------------|
---------------------------|----------------------|
---------------------------|----------------------|


  Verso Riff 1                                                     
  E            E.  E.  E.    E.  E      S S E.  E.  E.    E.  E    
-------------------------------------|----------------------------|
---------------8---7---8br---7---8~--|--L---8---7---8br---7---8~--|
-------------------------------------|----------------------------|
-------------------------------------|----------------------------|
-------------------------------------|----------------------------|
-------------------------------------|----------------------------|


                               tr                             
  S S E.  E.  E.    E  S E     H           S  S S E  S  S  S  
----------------------------|--------------------------------|
--L---8---7---8br---7--8----|--------------------------------|
-------------------------7--|--9(7)--------9p-7---7----------|
----------------------------|-------------------9----9p-7----|
----------------------------|-----------------------------10-|
----------------------------|--------------------------------|


  E  E.  E.  E.    E.  E      S S E.  E.  E.    E.  E    
---------------------------|----------------------------|
-----8---7---8br---7---8~--|--L---8---7---8br---7---8~--|
---------------------------|----------------------------|
---------------------------|----------------------------|
--7------------------------|----------------------------|
---------------------------|----------------------------|


                               tr                       
  S S E.  E.  E.    E  S E     H           E  S E.  E   
----------------------------|--------------------------|
--L---8---7---8br---7--8----|--------------------------|
-------------------------7--|--9(7)--------7--x-9---x--|
----------------------------|--------------5--x-7---x--|
----------------------------|--------------------------|
----------------------------|--------------------------|


  Verso Riff 2                                      
  S            S  S S S  S S S  S S S  S S S  S  S  
---------------------------------------------------|
---------------------------------------------------|
---------------------------------------------------|
-----------------10-----10-----10-----10-----10-10-|
--8------------8--8-8-8--8-8-8--8-8-8--8-8-8--8--8-|
---------------------------------------------------|


  S S  S S S  S S S  S  S  S  S  S  S  E     H        E.  E.  E   
------------------------------------------|----------------------|
------------------------------------------|----------------------|
--------------------------------------10--|--9--------7---9---x--|
------10-----10-----10-10-10-10-10-10-10--|--9--------5---7---x--|
--8-8--8-8-8--8-8-8--8--8--8--8--8--8--8--|--7-------------------|
------------------------------------------|----------------------|


  H         E     S  E.   E     S S  S S S  S S S  S S S  S S S  S  S  
-----------------------------|----------------------------------------|
-----------15br--13-15---13--|----------------------------------------|
--9--------------------------|----------------------------------------|
--9--------------------------|------10-----10-----10-----10-----10-10-|
--7--------------------------|--8-8--8-8-8--8-8-8--8-8-8--8-8-8--8--8-|
-----------------------------|----------------------------------------|


   S  S  S  S  S  S  S  S  S  S  S  S  S  S  E     H        E.  E.  E   
------------------------------------------------|----------------------|
--10-------10-------10-------10-------10--------|----------------------|
-----10-10----10-10----10-10----10-10----10-10--|--9--------7---9---x--|
------------------------------------------------|--9--------5---7---x--|
------------------------------------------------|--7-------------------|
------------------------------------------------|----------------------|


                                Coro A                        
                                                       tr     
  H         E     S  E.   E     E      E.  E.  E.  E.  E      
-----------------------------|-------------------------------|
-----------15br--14-15---14--|---------8---7-----------------|
--9--------------------------|-----------------9---7---9(7)--|
--9--------------------------|-------------------------------|
--7--------------------------|-------------------------------|
-----------------------------|-------------------------------|


                     tr                                  
  E  E.  E.  E.  E.  E        E  E.  E.  E.    E.  S S   
---------------------------|----------------------------|
-----8---7-----------------|-----8---7---8br---7---8-L\-|
-------------9---7---9(7)--|----------------------------|
---------------------------|----------------------------|
---------------------------|----------------------------|
---------------------------|----------------------------|


                                                  tr     
  E  E.  E.  E.    E.  S S     E  E.  E.  E.  E.  E      
----------------------------|---------------------------|
-----8---7---8br---7---8-L\-|-----8---7-----------------|
----------------------------|-------------9---7---9(7)--|
----------------------------|---------------------------|
----------------------------|---------------------------|
----------------------------|---------------------------|


                     tr                                      
  E  E.  E.  E.  E.  E        E   W                  Q.      
---------------------------|--------------------------------|
-----8---7-----------------|--------------------------------|
-------------9---7---9(7)--|--L--(9)~----------------L------|
---------------------------|--------------------------------|
---------------------------|--------------------------------|
---------------------------|--------------------------------|


    Interludio 1                                               
    E.           E.  E.  E.  E  E     E.  E.  E.  E.  E  E     
|---7------------5---3---2---3--5--|--7---5---3---2---3--5---||
|---8------------7---5---3---5--7--|--8---7---5---3---5--7---||
|*---------------------------------|------------------------*||
|*---------------------------------|------------------------*||
|----------------------------------|-------------------------||
|----------------------------------|-------------------------||


   E.  E.  E.  E.  E  E     E.  E.  E.  E.  E  E     E.  E.  E.  E.  E  E   
---7---5---3---2---3--5--|--7---5---3---2---3--5--|--7---5---3---2---3--5--|
---8---7---5---3---5--7--|--8---7---5---3---5--7--|--8---7---5---3---5--7--|
*------------------------|------------------------|------------------------|
*------------------------|------------------------|------------------------|
-------------------------|------------------------|------------------------|
-------------------------|------------------------|------------------------|


  E.  E.  E.  E.  E  E       W                 
--7---5---3---2---3--5---||--7----------------|
--8---7---5---3---5--7---||--8----------------|
------------------------*||-------------------|
------------------------*||-------------------|
-------------------------||-------------------|
-------------------------||-------------------|


          Interludio 2                             
  S  S  S S            S  S S  S  S S  S  S E  E   
--------------------------------------------------|
--5p-3p-0-5p-----------3p-0-5p-3p-0-5p-3p-0-5--3--|
--------------------------------------------------|
--------------------------------------------------|
--------------------------------------------------|
--------------------------------------------------|


  S  S  S S  S  S S  S  S S  S  S E  E   
----------------------------------------|
--5p-3p-0-5p-3p-0-5p-3p-0-5p-3p-0-5--3--|
----------------------------------------|
----------------------------------------|
----------------------------------------|
----------------------------------------|


  S  S  S S  S  S S  S  S S  S  S E  E   
--5p-3p-0-5p-3p-0-5p-3p-0-5p-3p-0-5--3--|
----------------------------------------|
----------------------------------------|
----------------------------------------|
----------------------------------------|
----------------------------------------|


  S  S  S S  S  S S  S  S S  S  S E  E   
----------------------------------------|
--5p-3p-0-5p-3p-0-5p-3p-0-5p-3p-0-5--3--|
----------------------------------------|
----------------------------------------|
----------------------------------------|
----------------------------------------|


  S  S  S S  S  S S  S  S S  S  S E  E   
----------------------------------------|
--8p-7p-5-8p-7p-5-8p-7p-5-8p-7p-5-8--7--|
----------------------------------------|
----------------------------------------|
----------------------------------------|
----------------------------------------|


  S  S  S S  S  S S  S  S S  S  S E  E   
----------------------------------------|
--8p-7p-5-8p-7p-5-8p-7p-5-8p-7p-5-8--7--|
----------------------------------------|
----------------------------------------|
----------------------------------------|
----------------------------------------|


                                           Solo Dave Murray        
                                           tr                      
  S  S  S S  S  S S  S  S S  S  S E  E     H.               E  E   
--8p-7p-5-8p-7p-5-8p-7p-5-8p-7p-5-8--7--|-------------------------|
----------------------------------------|----------------------8--|
----------------------------------------|--7(9)-------------9-----|
----------------------------------------|-------------------------|
----------------------------------------|-------------------------|
----------------------------------------|-------------------------|


                     |---3---|  |---3--|   |---3---|  
   E   Q     E.   S  S   S   S  S  S   S   S   S   S  
-----------------------------------------------------|
--10--10b----L---12-15p-12h-15----12h-15p-12h-15p-12-|
-------------------------------14--------------------|
-----------------------------------------------------|
-----------------------------------------------------|
-----------------------------------------------------|


                                    |---3---|  |--3--|   |---3---|  
   S  T   T  S  S  S   S  S  S  E   S   S   S  S  S  S   S   S   S  
-------------------------------------------------------------------|
--12-13h-15-13-12-13p-12----12-12--15p-12h-15-12----12h-15p-12h-15-|
-------------------------14----------------------14----------------|
-------------------------------------------------------------------|
-------------------------------------------------------------------|
-------------------------------------------------------------------|


                                   |---3---|  |--3--|   |---3---|  
  E   S  E    T   T   T  S.  S  S  S   S   S  S  S  S   S   S   S  
-----12------12h-15p-12-----12------------------------------------|
--L-----15b-------------15b----12-15p-12h-15-12----12h-15p-12h-15-|
------------------------------------------------14----------------|
------------------------------------------------------------------|
------------------------------------------------------------------|
------------------------------------------------------------------|


                          |---3---|  |---3--|  
   E   S  Q     S  Q      S   S   S  S  S   S  
------15b-L----15-15b----17p-15h-17----17p-15-|
--12--------------------------------17--------|
----------------------------------------------|
----------------------------------------------|
----------------------------------------------|
----------------------------------------------|


   |---3---|  |---3--|  |---3---|   |---3--|  |---3---|   |---3--|           
   S   S   S  S  S   S  S   S   S   S  S   S  S   S   S   S   S  S  E    E   
--14h-15p-14-12-------------------------------------------------------------|
----------------15p-14-15p-13h-15p-12-13p-12-15p-13h-15p-13p-12-------------|
----------------------------------------------------------------14-12S--11--|
----------------------------------------------------------------------------|
----------------------------------------------------------------------------|
----------------------------------------------------------------------------|


   |---3--|   |---3--|  |---3--|             |---3--|  |---3---|  |---3---|  
   S   S  S   S   S  S  S   S  S  S  E    S  S  S   S  S   S   S  S   S   S  
----------------------------------------------------------------------------|
-----------------------------------------------15p-12-15p-12h-13-12h-13p-12-|
--12p-11------------11-12p-11----12-14b--14b-L------------------------------|
---------14p-12h-14-----------14--------------------------------------------|
----------------------------------------------------------------------------|
----------------------------------------------------------------------------|


   |---3---|  |---3--|  |---3---|  |---3--|  |---3---|  |---3---|            
   S   S   S  S  S   S  S   S   S  S   S  S  S   S   S  S   S   S  S  S  E   
------------------------------------------------------------------12--------|
--13p-12h-13-12-----------------------------13p-12h-13-12h-13h-15----15b-L--|
----------------14p-12-12h-14p-12-11h-12-12---------------------------------|
----------------------------------------------------------------------------|
----------------------------------------------------------------------------|
----------------------------------------------------------------------------|


            |---3---|  |---3--|  |---3--|  |---3--|  |---3--|  
   Q.       S   S   S  S   S  S  S   S  S  S   S  S  S   S  S  
-----------17h-19p-17-----------------------------------------|
--15b-----------------20p-17-17-20p-17-17-20p-17-17-20p-17-17-|
--------------------------------------------------------------|
--------------------------------------------------------------|
--------------------------------------------------------------|
--------------------------------------------------------------|


   |---3---|  |--3--|  |---3---|  |---3---|  |--3--|   |---3--|  |---3--|  |---3
   S   S   S  S  S  S  S   S   S  S   S   S  S  S  S   S   S  S  S   S  S  S   S
--------------------------------------------------------------------------------
--19p-17h-19-19----20-17h-20p-17-17h-19p-17-17-17-20p-17h-20-17-19p-17-17-19p-17
----------------19--------------------------------------------------------------
--------------------------------------------------------------------------------
--------------------------------------------------------------------------------
--------------------------------------------------------------------------------


   Q       E.    E.     S  S   E   E   
--------------------------19br-L--19--|
--19br----19b---19br---19-------------|
--------------------------------------|
--------------------------------------|
--------------------------------------|
--------------------------------------|


         |---3---|        |---3---|  |---3--|   |---3---|            
   E     S   S   S  S  S  S   S   S  S   S  S   S   S   S  E   S  S  
--19br--18p-17p-15-17-15-17h-19p-17-15h-17-15h-17p-15h-17-15--------|
--------------------------------------------------------------17-15-|
--------------------------------------------------------------------|
--------------------------------------------------------------------|
--------------------------------------------------------------------|
--------------------------------------------------------------------|


   |--3--|  |---3--|  |---3---|                      
   S  S  S  S  S   S  S   S   S  E    Q      E   E   
----------------------------------------------------|
-----15----15---------------------------------------|
--17----17----17p-16-17p-16p-14-14b--14~----14\--x--|
----------------------------------------------------|
----------------------------------------------------|
----------------------------------------------------|


  Coro B                                                
  E      E.  E.  E.  E.  E      E  E.  E.  E.  E.  E    
-----------------------------|-------------------------|
---------8---7---------------|-----8---7---------------|
-----------------9---7---9~--|-------------9---7---9~--|
-----------------------------|-------------------------|
-----------------------------|-------------------------|
-----------------------------|-------------------------|


  E  E.  E.  E.  E.  E      E  E.  E.  E.  E.  E      E  E.  E.  E.  E.  E    
-------------------------|-------------------------|-----7---5---3---2---3~--|
-----8---7---------------|-----8---7---------------|-----8---7---5---3---5~--|
-------------9---7---9~--|-------------9---7---9~--|-------------------------|
-------------------------|-------------------------|-------------------------|
-------------------------|-------------------------|-------------------------|
-------------------------|-------------------------|-------------------------|


                            Coro A                        
                                                   tr     
  E  E.  E.  E.  E.  E      E      E.  E.  E.  E.  E      
-----7---5---3---2---3~--|-------------------------------|
-----8---7---5---3---5~--|---------8---7-----------------|
-------------------------|-----------------9---7---9(7)--|
-------------------------|-------------------------------|
-------------------------|-------------------------------|
-------------------------|-------------------------------|


                     tr                                  
  E  E.  E.  E.  E.  E        E  E.  E.  E.    E.  S S   
---------------------------|----------------------------|
-----8---7-----------------|-----8---7---8br---7---8-L\-|
-------------9---7---9(7)--|----------------------------|
---------------------------|----------------------------|
---------------------------|----------------------------|
---------------------------|----------------------------|


                                                  tr     
  E  E.  E.  E.    E.  S S     E  E.  E.  E.  E.  E      
----------------------------|---------------------------|
-----8---7---8br---7---8-L\-|-----8---7-----------------|
----------------------------|-------------9---7---9(7)--|
----------------------------|---------------------------|
----------------------------|---------------------------|
----------------------------|---------------------------|


                              Verso Riff 1                        
                   \1/                                            
  E  E.  E.  E     E  Q       E            E.  E.  E.    E.  E    
----------------<>10--L----|-------------------------------------|
-----8---7-----------------|---------------8---7---8br---7---8~--|
-------------9-------------|-------------------------------------|
---------------------------|-------------------------------------|
---------------------------|-------------------------------------|
---------------------------|-------------------------------------|


  S S E.  E.  E.    E.  E      S S E.  E.  E.    E  S E   
----------------------------|----------------------------|
--L---8---7---8br---7---8~--|--L---8---7---8br---7--8----|
----------------------------|-------------------------7--|
----------------------------|----------------------------|
----------------------------|----------------------------|
----------------------------|----------------------------|


  tr                                                         
  H           S  S S E  S  S  S    E  E.  E.  E.    E.  E    
--------------------------------|---------------------------|
--------------------------------|-----8---7---8br---7---8~--|
--9(7)--------9p-7---7----------|---------------------------|
-------------------9----9p-7----|---------------------------|
-----------------------------10-|--7------------------------|
--------------------------------|---------------------------|


  S S E.  E.  E.    E.  E      S S E.  E.  E.    E  S E   
----------------------------|----------------------------|
--L---8---7---8br---7---8~--|--L---8---7---8br---7--8----|
----------------------------|-------------------------7--|
----------------------------|----------------------------|
----------------------------|----------------------------|
----------------------------|----------------------------|


                             Verso Riff 2                                      
  tr                                                                           
  H           E  S E.  E     S            S  S S S  S S S  S S S  S S S  S  S  
--------------------------|---------------------------------------------------|
--------------------------|---------------------------------------------------|
--9(7)--------7--x-9---x--|---------------------------------------------------|
--------------5--x-7---x--|-----------------10-----10-----10-----10-----10-10-|
--------------------------|--8------------8--8-8-8--8-8-8--8-8-8--8-8-8--8--8-|
--------------------------|---------------------------------------------------|


  S S  S S S  S S S  S  S  S  S  S  S  E     H        E.  E.  E   
------------------------------------------|----------------------|
------------------------------------------|----------------------|
--------------------------------------10--|--9--------7---9---x--|
------10-----10-----10-10-10-10-10-10-10--|--9--------5---7---x--|
--8-8--8-8-8--8-8-8--8--8--8--8--8--8--8--|--7-------------------|
------------------------------------------|----------------------|


  H         E     S  E.   E     S S  S S S  S S S  S S S  S S S  S  S  
-----------------------------|----------------------------------------|
-----------15br--13-15---13--|----------------------------------------|
--9--------------------------|----------------------------------------|
--9--------------------------|------10-----10-----10-----10-----10-10-|
--7--------------------------|--8-8--8-8-8--8-8-8--8-8-8--8-8-8--8--8-|
-----------------------------|----------------------------------------|


   S  S  S  S  S  S  S  S  S  S  S  S  S  S  E     H        E.  E.  E   
------------------------------------------------|----------------------|
--10-------10-------10-------10-------10--------|----------------------|
-----10-10----10-10----10-10----10-10----10-10--|--9--------7---9---x--|
------------------------------------------------|--9--------5---7---x--|
------------------------------------------------|--7-------------------|
------------------------------------------------|----------------------|


                                Coro A                        
                                                       tr     
  H         E     S  E.   E     E      E.  E.  E.  E.  E      
-----------------------------|-------------------------------|
-----------15br--14-15---14--|---------8---7-----------------|
--9--------------------------|-----------------9---7---9(7)--|
--9--------------------------|-------------------------------|
--7--------------------------|-------------------------------|
-----------------------------|-------------------------------|


                     tr                                  
  E  E.  E.  E.  E.  E        E  E.  E.  E.    E.  S S   
---------------------------|----------------------------|
-----8---7-----------------|-----8---7---8br---7---8-L\-|
-------------9---7---9(7)--|----------------------------|
---------------------------|----------------------------|
---------------------------|----------------------------|
---------------------------|----------------------------|


                                                  tr     
  E  E.  E.  E.    E.  S S     E  E.  E.  E.  E.  E      
----------------------------|---------------------------|
-----8---7---8br---7---8-L\-|-----8---7-----------------|
----------------------------|-------------9---7---9(7)--|
----------------------------|---------------------------|
----------------------------|---------------------------|
----------------------------|---------------------------|


                     tr     
  E  E.  E.  E.  E.  E      
---------------------------|
-----8---7-----------------|
-------------9---7---9(7)--|
---------------------------|
---------------------------|
---------------------------|


   Outro                                                                        
   E.    S   T   T   T  T  T   T   T   T  T   T   T  T   T  T   T  T  T   T   T 
------------15p-12h-15----12h-15p-12h-15-12h-15p-12---------------12-14h-15p-14h
--15b---15b------------15---------------------------15p-13-12h-15---------------
--------------------------------------------------------------------------------
--------------------------------------------------------------------------------
--------------------------------------------------------------------------------
--------------------------------------------------------------------------------


                                  |---3---|         |---3---|                   
   T  T  T   T   T  T   T   T  S  S   S   S  S   S  S   S   S  S  T   T  S   E  
--------12h-15p-12--------------------------------------------------------------
--15-15------------15p-12h-13-12------------15b-13------------------------------
---------------------------------14p-12p-11--------14p-12h-14-11-12p-11-----12~-
------------------------------------------------------------------------14b-----
--------------------------------------------------------------------------------
--------------------------------------------------------------------------------


      \1                                                                 
      W                     W                    E.   E.   E  H          
------------------------|--------------------|--12----L\---------------||
------------------------|--------------------|--12----L\---------------||
--<>(12)----------------|---L----------------|--12----L\---------------||
------------------------|--------------------|-------------------------||
------------------------|--------------------|-------------------------||
------------------------|--------------------|-------------------------||




Guitar #2:

Adrian Smith

          Intro                                
     S    S     S S S S S S S S S S S S S S S  
E||----|--------------------------------------|
B||----|--------------------------------------|
G||----|--------------------------------------|
D||----|----------9-x---9-x---9-x---9-x---9-9-|
A||----|--7-----7-7-x-7-7-x-7-7-x-7-7-x-7-7-7-|
E||----|--------------------------------------|


  S S S S S S S S S S S S S S S S    S S S S S S S S S S S S S S S S  
----------------------------------|----------------------------------|
----------------------------------|----------------------------------|
----------------------------------|----------------------------------|
------9-x---9-x---9-x---9-x---9-9-|------9-x---9-x---9-x---9-x---9-9-|
--7-7-7-x-7-7-x-7-7-x-7-7-x-7-7-7-|--7-7-7-x-7-7-x-7-7-x-7-7-x-7-7-7-|
----------------------------------|----------------------------------|


  S S S S S S S S S S S S S S S S    S S S S S S S S S S S S S S S S  
----------------------------------|----------------------------------|
----------------------------------|----------------------------------|
----------------------------------|----------------------------------|
------9-x---9-x---9-x---9-x---9-9-|------7-x---7-x---7-x---7-x---7-7-|
--7-7-7-x-7-7-x-7-7-x-7-7-x-7-7-7-|--5-5-5-x-5-5-x-5-5-x-5-5-x-5-5-5-|
----------------------------------|----------------------------------|


  S S S S S S S S S S S S S S S S    S S S S S S S S S S S S S S S S  
----------------------------------|----------------------------------|
----------------------------------|----------------------------------|
----------------------------------|----------------------------------|
------9-x---9-x---9-x---9-x---9-9-|------9-x---9-x---9-x---9-x---9-9-|
--7-7-7-x-7-7-x-7-7-x-7-7-x-7-7-7-|--7-7-7-x-7-7-x-7-7-x-7-7-x-7-7-7-|
----------------------------------|----------------------------------|


  S S S S S S S S S S S S S S S S    S S S S S S S S S S S S S S S S  
----------------------------------|----------------------------------|
----------------------------------|----------------------------------|
----------------------------------|----------------------------------|
------9-x---9-x---9-x---9-x---9-9-|------7-x---7-x---7-x---7-x---7-7-|
--7-7-7-x-7-7-x-7-7-x-7-7-x-7-7-7-|--5-5-5-x-5-5-x-5-5-x-5-5-x-5-5-5-|
----------------------------------|----------------------------------|


  S S S S S S S S S S S S S S S S  
----------------------------------|
----------------------------------|
----------------------------------|
------9-x---9-x---9-x---9-x---9-9-|
--7-7-7-x-7-7-x-7-7-x-7-7-x-7-7-7-|
----------------------------------|


  Verso Riff 1                                
  S            S S S S S S S S S S S S S S S  
---------------------------------------------|
---------------------------------------------|
---------------------------------------------|
-----------------9-x---9-x---9-x---9-x---9-9-|
--7------------7-7-x-7-7-x-7-7-x-7-7-x-7-7-7-|
---------------------------------------------|


  S S S S S S S S S S S S S S S S    S S S S S S S S S S S S S S S S  
----------------------------------|----------------------------------|
----------------------------------|----------------------------------|
----------------------------------|----------------------------------|
------9-x---9-x---9-x---9-x---9-9-|------7-x---7-x---7-x---7-x---7-7-|
--7-7-7-x-7-7-x-7-7-x-7-7-x-7-7-7-|--5-5-5-x-5-5-x-5-5-x-5-5-x-5-5-5-|
----------------------------------|----------------------------------|


  S S S S S E.  S  S S E  S  S S    E  S S S S S S S S S S S S S S  
---------------------------------|---------------------------------|
---------------------------------|---------------------------------|
---------------------------------|---------------------------------|
------9-x---9--------------------|-----9-x---9-x---9-x---9-x---9-9-|
--7-7-7-x-7-7---7p-5---5---------|-----7-x-7-7-x-7-7-x-7-7-x-7-7-7-|
---------------------7----7p-5-3-|--0------------------------------|


  S S S S S S S S S S S S S S S S    S S S S S S S S S S S S S S S S  
----------------------------------|----------------------------------|
----------------------------------|----------------------------------|
----------------------------------|----------------------------------|
------9-x---9-x---9-x---9-x---9-9-|------7-x---7-x---7-x---7-x---7-7-|
--7-7-7-x-7-7-x-7-7-x-7-7-x-7-7-7-|--5-5-5-x-5-5-x-5-5-x-5-5-x-5-5-5-|
----------------------------------|----------------------------------|


  S S S S S E.  E  S E.  E   
----------------------------|
----------------------------|
----------------------------|
------9-x---9---------------|
--7-7-7-x-7-7---5--x-7---x--|
----------------3--x-5---x--|


  Verso Riff 2                                      
  S            S  S S S  S S S  S S S  S S S  S  S  
---------------------------------------------------|
---------------------------------------------------|
---------------------------------------------------|
-----------------10-----10-----10-----10-----10-10-|
--8------------8--8-8-8--8-8-8--8-8-8--8-8-8--8--8-|
---------------------------------------------------|


  S S  S S S  S S S  S  S  S  S  S  S  E     E  S S S S S S E.  E.  E   
------------------------------------------|----------------------------|
------------------------------------------|----------------------------|
--------------------------------------10--|----------------------------|
------10-----10-----10-10-10-10-10-10-10--|--9------x-9----------------|
--8-8--8-8-8--8-8-8--8--8--8--8--8--8--8--|--7--7-7-x-7-7-7-5---7---x--|
------------------------------------------|-----------------3---5---x--|


  H         E    S  E.  E     S S  S S S  S S S  S S S  S S S  S  S  
---------------------------|----------------------------------------|
-----------10br--8-10---8--|----------------------------------------|
---------------------------|----------------------------------------|
--9------------------------|------10-----10-----10-----10-----10-10-|
--7------------------------|--8-8--8-8-8--8-8-8--8-8-8--8-8-8--8--8-|
---------------------------|----------------------------------------|


  S S  S S S  S S S  S  S  S  S  S  S  E     E  S S S S S S E.  E.  E   
------------------------------------------|----------------------------|
------------------------------------------|----------------------------|
--------------------------------------10--|----------------------------|
------10-----10-----10-10-10-10-10-10-10--|--9------x-9----------------|
--8-8--8-8-8--8-8-8--8--8--8--8--8--8--8--|--7--7-7-x-7-7-7-5---7---x--|
------------------------------------------|-----------------3---5---x--|


                              Coro A                                
  H         E    S  E.  E     W                   W                 
---------------------------|-------------------|-------------------|
-----------10br--9-10---9--|-------------------|-------------------|
---------------------------|--5----------------|--7----------------|
--9------------------------|--5----------------|--7----------------|
--7------------------------|--3----------------|--5----------------|
---------------------------|-------------------|-------------------|


  S S S S S S S S S S S S S S S S    S S S S S S S S S S S S S S S S  
----------------------------------|----------------------------------|
----------------------------------|----------------------------------|
----------------------------------|----------------------------------|
------9-x---9-x---9-x---9-x---9-9-|------9-x---9-x---9-x---9-x---9-9-|
--7-7-7-x-7-7-x-7-7-x-7-7-x-7-7-7-|--7-7-7-x-7-7-x-7-7-x-7-7-x-7-7-7-|
----------------------------------|----------------------------------|


                                             ^                        
  W                   W                   E  Q.     W                 
-------------------|-------------------|-----------------------------|
-------------------|-------------------|-----------------------------|
--5----------------|--7----------------|-----------------------------|
--5----------------|--7----------------|-----2------L----------------|
--3----------------|--5----------------|-----2------L----------------|
-------------------|-------------------|-----0------L----------------|


    Interludio 1                                                 
    W                   W                      W                 
|--------------------|--------------------||--------------------|
|--------------------|--------------------||--------------------|
|*-------------------|-------------------*||*-------------------|
|*-------------------|-------------------*||*--2----------------|
|--------------------|--------------------||---2----------------|
|--------------------|--------------------||---0----------------|


  W                   W                   W                   
-------------------|-------------------|--------------------||
-------------------|-------------------|--------------------||
-------------------|-------------------|-------------------*||
--4----------------|--7----------------|--2----------------*||
--4----------------|--7----------------|--2-----------------||
--2----------------|--5----------------|--0-----------------||


                      Interludio 2                              
  W                   S            S S S S S S S S S S S E  E   
-------------------|-------------------------------------------|
-------------------|-------------------------------------------|
-------------------|-------------------------------------------|
--2----------------|-------------------------------------------|
--2----------------|--7------------5---7-5---7-5---7-5---7--5--|
--0----------------|-----------------7-----7-----7-----7-------|


  S S S S S S S S S S S S E  E     S S S S S S S S S S S S E  E   
--------------------------------|--------------------------------|
--------------------------------|--------------------------------|
--------------------------------|--------------------------------|
--------------------------------|--7-5---7-5---7-5---7-5---7--5--|
--7-5---7-5---7-5---7-5---7--5--|------7-----7-----7-----7-------|
------7-----7-----7-----7-------|--------------------------------|


  S S S S S S S S S S S S E  E     S  S  S S  S  S S  S  S S  S  S E  E   
--------------------------------|----------------------------------------|
--------------------------------|--5p-3p-0-5p-3p-0-5p-3p-0-5p-3p-0-5--3--|
--------------------------------|----------------------------------------|
--------------------------------|----------------------------------------|
--7-5---7-5---7-5---7-5---7--5--|----------------------------------------|
------7-----7-----7-----7-------|----------------------------------------|


  S  S  S S  S  S S  S  S S  S  S E  E   
----------------------------------------|
--5p-3p-0-5p-3p-0-5p-3p-0-5p-3p-0-5--3--|
----------------------------------------|
----------------------------------------|
----------------------------------------|
----------------------------------------|


  S  S  S S  S  S S  S  S S  S  S E  E   
--5p-3p-0-5p-3p-0-5p-3p-0-5p-3p-0-5--3--|
----------------------------------------|
----------------------------------------|
----------------------------------------|
----------------------------------------|
----------------------------------------|


  Solo Dave Murray                                     
  S                S  S S  S  S S  S  S S  S  S E  E   
------------------------------------------------------|
--5p---------------3p-0-5p-3p-0-5p-3p-0-5p-3p-0-5--3--|
------------------------------------------------------|
------------------------------------------------------|
------------------------------------------------------|
------------------------------------------------------|


  E  S E  S E  E.  E.  E     E  S E  S E  E.  E.  E   
--------------------------|--------------------------|
--------------------------|--------------------------|
--------------------------|--------------------------|
--------------------------|--7--x-7--x-7--7---7---7--|
--2--x-2--x-2--2---2---2--|--5--x-5--x-5--5---5---5--|
--0--x-0--x-0--0---0---0--|--------------------------|


  E  S E  S E  E.  E.  E     E  S E  S E  E.  E.  E   
--------------------------|--------------------------|
--------------------------|--------------------------|
--------------------------|--------------------------|
--5--x-5--x-5--5---5---5--|--4--x-4--x-4--5---5---7--|
--3--x-3--x-3--3---3---3--|--2--x-2--x-2--3---3---5--|
--------------------------|--------------------------|


  E  S E  S E  E.  E.  E     E  S E  S E  E.  E.  E   
--------------------------|--------------------------|
--------------------------|--------------------------|
--------------------------|--------------------------|
--------------------------|--7--x-7--x-7--7---7---7--|
--2--x-2--x-2--2---2---2--|--5--x-5--x-5--5---5---5--|
--0--x-0--x-0--0---0---0--|--------------------------|


  E  S E  S E  E.  E.  E     E  S E  S E  E.  E.  E   
--------------------------|--------------------------|
--------------------------|--------------------------|
--------------------------|--------------------------|
--5--x-5--x-5--5---5---5--|--4--x-4--x-4--5---5---7--|
--3--x-3--x-3--3---3---3--|--2--x-2--x-2--3---3---5--|
--------------------------|--------------------------|


  E  S E  S E  E.  E.  E     E  S E  S E  E.  E.  E   
--------------------------|--------------------------|
--------------------------|--------------------------|
--------------------------|--------------------------|
--------------------------|--7--x-7--x-7--7---7---7--|
--2--x-2--x-2--2---2---2--|--5--x-5--x-5--5---5---5--|
--0--x-0--x-0--0---0---0--|--------------------------|


  E  S E  S E  E.  E.  E     E  S E  S E  E.  E.  E   
--------------------------|--------------------------|
--------------------------|--------------------------|
--------------------------|--------------------------|
--5--x-5--x-5--5---5---5--|--4--x-4--x-4--5---5---7--|
--3--x-3--x-3--3---3---3--|--2--x-2--x-2--3---3---5--|
--------------------------|--------------------------|


  Coro B                                                  
  E      S E  S E  E.  E.  E     E  S E  S E  E.  E.  E   
------------------------------|--------------------------|
------------------------------|--------------------------|
------------------------------|--------------------------|
------------------------------|--7--x-7--x-7--7---7---7--|
--2------x-2--x-2--2---2---2--|--5--x-5--x-5--5---5---5--|
--0------x-0--x-0--0---0---0--|--------------------------|


  E  S E  S E  E.  E.  E     E  S E  S E  E.  E.  E   
--------------------------|--------------------------|
--------------------------|--------------------------|
--------------------------|--------------------------|
--5--x-5--x-5--5---5---5--|--4--x-4--x-4--5---5---7--|
--3--x-3--x-3--3---3---3--|--2--x-2--x-2--3---3---5--|
--------------------------|--------------------------|


                                                        Coro A            
  E  S E  S E  E.  E.  E     E  S E  S E  E.  E.  E     W                 
--------------------------|--------------------------|-------------------|
--------------------------|--------------------------|-------------------|
--------------------------|--------------------------|--5----------------|
--------------------------|--7--x-7--x-7--7---7---7--|--5----------------|
--2--x-2--x-2--2---2---2--|--5--x-5--x-5--5---5---5--|--3----------------|
--0--x-0--x-0--0---0---0--|--------------------------|-------------------|


  W                   S S S S S S S S S S S S S S S S  
-------------------|----------------------------------|
-------------------|----------------------------------|
--7----------------|----------------------------------|
--7----------------|------9-x---9-x---9-x---9-x---9-9-|
--5----------------|--7-7-7-x-7-7-x-7-7-x-7-7-x-7-7-7-|
-------------------|----------------------------------|


  S S S S S S S S S S S S S S S S    W                   W                 
----------------------------------|-------------------|-------------------|
----------------------------------|-------------------|-------------------|
----------------------------------|--5----------------|--7----------------|
------9-x---9-x---9-x---9-x---9-9-|--5----------------|--7----------------|
--7-7-7-x-7-7-x-7-7-x-7-7-x-7-7-7-|--3----------------|--5----------------|
----------------------------------|-------------------|-------------------|


  Verso Riff 1                                
  S            S S S S S S S S S S S S S S S  
---------------------------------------------|
---------------------------------------------|
---------------------------------------------|
-----------------9-x---9-x---9-x---9-x---9-9-|
--7------------7-7-x-7-7-x-7-7-x-7-7-x-7-7-7-|
---------------------------------------------|


  S S S S S S S S S S S S S S S S    S S S S S S S S S S S S S S S S  
----------------------------------|----------------------------------|
----------------------------------|----------------------------------|
----------------------------------|----------------------------------|
------9-x---9-x---9-x---9-x---9-9-|------7-x---7-x---7-x---7-x---7-7-|
--7-7-7-x-7-7-x-7-7-x-7-7-x-7-7-7-|--5-5-5-x-5-5-x-5-5-x-5-5-x-5-5-5-|
----------------------------------|----------------------------------|


  S S S S S E.  S  S S E  S  S S    E  S S S S S S S S S S S S S S  
---------------------------------|---------------------------------|
---------------------------------|---------------------------------|
---------------------------------|---------------------------------|
------9-x---9--------------------|-----9-x---9-x---9-x---9-x---9-9-|
--7-7-7-x-7-7---7p-5---5---------|-----7-x-7-7-x-7-7-x-7-7-x-7-7-7-|
---------------------7----7p-5-3-|--0------------------------------|


  S S S S S S S S S S S S S S S S    S S S S S S S S S S S S S S S S  
----------------------------------|----------------------------------|
----------------------------------|----------------------------------|
----------------------------------|----------------------------------|
------9-x---9-x---9-x---9-x---9-9-|------7-x---7-x---7-x---7-x---7-7-|
--7-7-7-x-7-7-x-7-7-x-7-7-x-7-7-7-|--5-5-5-x-5-5-x-5-5-x-5-5-x-5-5-5-|
----------------------------------|----------------------------------|


  S S S S S E.  E  S E.  E   
----------------------------|
----------------------------|
----------------------------|
------9-x---9---------------|
--7-7-7-x-7-7---5--x-7---x--|
----------------3--x-5---x--|


  Verso Riff 2                                      
  S            S  S S S  S S S  S S S  S S S  S  S  
---------------------------------------------------|
---------------------------------------------------|
---------------------------------------------------|
-----------------10-----10-----10-----10-----10-10-|
--8------------8--8-8-8--8-8-8--8-8-8--8-8-8--8--8-|
---------------------------------------------------|


  S S  S S S  S S S  S  S  S  S  S  S  E     E  S S S S S S E.  E.  E   
------------------------------------------|----------------------------|
------------------------------------------|----------------------------|
--------------------------------------10--|----------------------------|
------10-----10-----10-10-10-10-10-10-10--|--9------x-9----------------|
--8-8--8-8-8--8-8-8--8--8--8--8--8--8--8--|--7--7-7-x-7-7-7-5---7---x--|
------------------------------------------|-----------------3---5---x--|


  H         E    S  E.  E     S S  S S S  S S S  S S S  S S S  S  S  
---------------------------|----------------------------------------|
-----------10br--8-10---8--|----------------------------------------|
---------------------------|----------------------------------------|
--9------------------------|------10-----10-----10-----10-----10-10-|
--7------------------------|--8-8--8-8-8--8-8-8--8-8-8--8-8-8--8--8-|
---------------------------|----------------------------------------|


  S S  S S S  S S S  S  S  S  S  S  S  E     E  S S S S S S E.  E.  E   
------------------------------------------|----------------------------|
------------------------------------------|----------------------------|
--------------------------------------10--|----------------------------|
------10-----10-----10-10-10-10-10-10-10--|--9------x-9----------------|
--8-8--8-8-8--8-8-8--8--8--8--8--8--8--8--|--7--7-7-x-7-7-7-5---7---x--|
------------------------------------------|-----------------3---5---x--|


                              Coro A                                
  H         E    S  E.  E     W                   W                 
---------------------------|-------------------|-------------------|
-----------10br--9-10---9--|-------------------|-------------------|
---------------------------|--5----------------|--7----------------|
--9------------------------|--5----------------|--7----------------|
--7------------------------|--3----------------|--5----------------|
---------------------------|-------------------|-------------------|


  S S S S S S S S S S S S S S S S    S S S S S S S S S S S S S S S S  
----------------------------------|----------------------------------|
----------------------------------|----------------------------------|
----------------------------------|----------------------------------|
------9-x---9-x---9-x---9-x---9-9-|------9-x---9-x---9-x---9-x---9-9-|
--7-7-7-x-7-7-x-7-7-x-7-7-x-7-7-7-|--7-7-7-x-7-7-x-7-7-x-7-7-x-7-7-7-|
----------------------------------|----------------------------------|


                                          Outro                                 
                                          TP                                    
  W                   W                   W                   W                 
-------------------|-------------------|-------------------|-------------------|
-------------------|-------------------|-------------------|-------------------|
--5----------------|--7----------------|-------------------|-------------------|
--5----------------|--7----------------|--2----------------|--L----------------|
--3----------------|--5----------------|--2----------------|--L----------------|
-------------------|-------------------|--0----------------|--L----------------|


                      \1/                                        
  W                   W                   E.  E.   E  H          
-------------------|-------------------|-----------------------||
-------------------|-------------------|-----------------------||
-------------------|-------------------|-----------------------||
--2----------------|-------------------|--2---L\---------------||
--2----------------|-------------------|--2---L\---------------||
--0----------------|--0----------------|--0---L----------------||




Guitar #3:
                                  
Janick Gers

          Intro                                                             
                                             <                <             
     S    W                   H.             Q       E  E.    H        E.   
E||----|-------------------|----------------------|------------------------|
B||----|-------------------|---------------<>5----|---------<>5------------|
G||----|-------------------|----------------------|------------------------|
D||----|-------------------|----------------------|------------------------|
A||----|-------------------|----------------------|------------------------|
E||----|-------------------|----------------------|------------------------|


    <                       <                       <                 
    Q.     H        E       Q.     H        E       W                 
-----------------------|-----------------------|---------------------|
--<>5------------------|--<>5------------------|--<>5----------------|
-----------------------|-----------------------|---------------------|
-----------------------|-----------------------|---------------------|
-----------------------|-----------------------|---------------------|
-----------------------|-----------------------|---------------------|


                               <                                 
  W                   E  E.    H        E.     W                 
-------------------|------------------------|-------------------|
-------------------|---------<>5------------|-------------------|
-------------------|------------------------|-------------------|
-------------------|------------------------|-------------------|
-------------------|------------------------|-------------------|
-------------------|------------------------|-------------------|


                              Verso Riff 1                                
  H        S S S S S S S S    S            S S S S S S S S S S S S S S S  
---------------------------|---------------------------------------------|
---------------------------|---------------------------------------------|
---------------------------|---------------------------------------------|
---------------------------|-----------------9-x---9-x---9-x---9-x---9-9-|
-----------7-5-------------|--7------------7-7-x-7-7-x-7-7-x-7-7-x-7-7-7-|
-----------------7---5-3---|---------------------------------------------|


  S S S S S S S S S S S S S S S S    S S S S S S S S S S S S S S S S  
----------------------------------|----------------------------------|
----------------------------------|----------------------------------|
----------------------------------|----------------------------------|
------9-x---9-x---9-x---9-x---9-9-|------7-x---7-x---7-x---7-x---7-7-|
--7-7-7-x-7-7-x-7-7-x-7-7-x-7-7-7-|--5-5-5-x-5-5-x-5-5-x-5-5-x-5-5-5-|
----------------------------------|----------------------------------|


  S S S S S S S S S S S S S S S S    S S S S S S S S S S S S S S S S  
----------------------------------|----------------------------------|
----------------------------------|----------------------------------|
----------------------------------|----------------------------------|
------9-x---9-x---9-x---9-x---9-9-|------9-x---9-x---9-x---9-x---9-9-|
--7-7-7-x-7-7-x-7-7-x-7-7-x-7-7-7-|--7-7-7-x-7-7-x-7-7-x-7-7-x-7-7-7-|
----------------------------------|----------------------------------|


  S S S S S S S S S S S S S S S S    S S S S S S S S S S S S S S S S  
----------------------------------|----------------------------------|
----------------------------------|----------------------------------|
----------------------------------|----------------------------------|
------9-x---9-x---9-x---9-x---9-9-|------7-x---7-x---7-x---7-x---7-7-|
--7-7-7-x-7-7-x-7-7-x-7-7-x-7-7-7-|--5-5-5-x-5-5-x-5-5-x-5-5-x-5-5-5-|
----------------------------------|----------------------------------|


                               Verso Riff 2                                
  S S S S S E.  E  S E.  E     S            S S S S S S S S S S S S S S S  
----------------------------|---------------------------------------------|
----------------------------|---------------------------------------------|
----------------------------|---------------------------------------------|
------9-x---9---------------|---------------------------------------------|
--7-7-7-x-7-7---5--x-7---x--|-----------------3-----3-----3-----3-----3-3-|
----------------3--x-5---x--|--1------------1-1-1-1-1-1-1-1-1-1-1-1-1-1-1-|


  S S S S S S S S S S S S S S E     E  S S S S S S E.  E.  E   
---------------------------------|----------------------------|
---------------------------------|----------------------------|
---------------------------------|----------------------------|
------------------------------3--|----------------------------|
------3-----3-----3-3-3-3-3-3-3--|--2------x-2-----5---7---x--|
--1-1-1-1-1-1-1-1-1-1-1-1-1-1-1--|--0--0-0-x-0-0-0-3---5---x--|


  H         E     S  E.   E     S S S S S S S S S S S S S S S S  
-----------------------------|----------------------------------|
-----------13br--12-13---12--|----------------------------------|
-----------------------------|----------------------------------|
-----------------------------|----------------------------------|
--2--------------------------|------3-----3-----3-----3-----3-3-|
--0--------------------------|--1-1-1-1-1-1-1-1-1-1-1-1-1-1-1-1-|


  S S S S S S S S S S S S S S E     E  S S S S S S E.  E.  E   
---------------------------------|----------------------------|
---------------------------------|----------------------------|
---------------------------------|----------------------------|
------------------------------3--|----------------------------|
------3-----3-----3-3-3-3-3-3-3--|--2------x-2-----5---7---x--|
--1-1-1-1-1-1-1-1-1-1-1-1-1-1-1--|--0--0-0-x-0-0-0-3---5---x--|


                                Coro A                                
  H         E     S  E.   E     W                   W                 
-----------------------------|-------------------|-------------------|
-----------13br--12-13---12--|-------------------|-------------------|
-----------------------------|--5----------------|--7----------------|
-----------------------------|--5----------------|--7----------------|
--2--------------------------|--3----------------|--5----------------|
--0--------------------------|-------------------|-------------------|


  S S S S S S S S S S S S S S S S    S S S S S S S S S S S S S S S S  
----------------------------------|----------------------------------|
----------------------------------|----------------------------------|
----------------------------------|----------------------------------|
------9-x---9-x---9-x---9-x---9-9-|------9-x---9-x---9-x---9-x---9-9-|
--7-7-7-x-7-7-x-7-7-x-7-7-x-7-7-7-|--7-7-7-x-7-7-x-7-7-x-7-7-x-7-7-7-|
----------------------------------|----------------------------------|


                                             ^                        
  W                   W                   E  Q.     W                 
-------------------|-------------------|-----------------------------|
-------------------|-------------------|-----------------------------|
--5----------------|--7----------------|-----9------L----------------|
--5----------------|--7----------------|-----9------L----------------|
--3----------------|--5----------------|-----7------L----------------|
-------------------|-------------------|-----------------------------|


    Interludio 1                                                 
    W                   W                      W                 
|--------------------|--------------------||--------------------|
|--------------------|--------------------||--------------------|
|*-------------------|-------------------*||*--9----------------|
|*-------------------|-------------------*||*--9----------------|
|--------------------|--------------------||---7----------------|
|--------------------|--------------------||--------------------|


   W                    W                   W                   
--------------------|--------------------|--------------------||
--------------------|--------------------|--------------------||
--11----------------|--14----------------|--9----------------*||
--11----------------|--14----------------|--9----------------*||
---9----------------|--12----------------|--7-----------------||
--------------------|--------------------|--------------------||


                      Interludio 2                              
  W                   S            S S S S S S S S S S S E  E   
-------------------|-------------------------------------------|
-------------------|-------------------------------------------|
--9----------------|-------------------------------------------|
--9----------------|-------------------------------------------|
--7----------------|--7------------5---7-5---7-5---7-5---7--5--|
-------------------|-----------------7-----7-----7-----7-------|


  S S S S S S S S S S S S E  E     S S S S S S S S S S S S E  E   
--------------------------------|--------------------------------|
--------------------------------|--------------------------------|
--------------------------------|--------------------------------|
--------------------------------|--7-5---7-5---7-5---7-5---7--5--|
--7-5---7-5---7-5---7-5---7--5--|------7-----7-----7-----7-------|
------7-----7-----7-----7-------|--------------------------------|


  S S S S S S S S S S S S E  E     S S S S S S S S S S S S E  E   
--------------------------------|--------------------------------|
--------------------------------|--------------------------------|
--------------------------------|--------------------------------|
--------------------------------|--------------------------------|
--7-5---7-5---7-5---7-5---7--5--|--7-5---7-5---7-5---7-5---7--5--|
------7-----7-----7-----7-------|------7-----7-----7-----7-------|


  S S S S S S S S S S S S E  E     S S S S S S S S S S S S E  E   
--------------------------------|--------------------------------|
--------------------------------|--------------------------------|
--------------------------------|--------------------------------|
--------------------------------|--7-5---7-5---7-5---7-5---7--5--|
--7-5---7-5---7-5---7-5---7--5--|------7-----7-----7-----7-------|
------7-----7-----7-----7-------|--------------------------------|


  Solo Dave Murray                                                         
  S                S S S S S S S S S S S E  E     E  S E  S E  E.  E.  E   
-----------------------------------------------|--------------------------|
-----------------------------------------------|--------------------------|
-----------------------------------------------|--------------------------|
-----------------------------------------------|--9--x-9--x-9--9---9---9--|
--7----------------5---7-5---7-5---7-5---7--5--|--7--x-7--x-7--7---7---7--|
---------------------7-----7-----7-----7-------|--------------------------|


  E  S E  S E  E.  E.  E     E  S E  S E  E.  E.  E   
--------------------------|--------------------------|
--------------------------|--------------------------|
--------------------------|--------------------------|
--7--x-7--x-7--7---7---7--|--5--x-5--x-5--5---5---5--|
--5--x-5--x-5--5---5---5--|--3--x-3--x-3--3---3---3--|
--------------------------|--------------------------|


  E  S E  S E  E.  E.  E     E  S E  S E  E.  E.  E   
--------------------------|--------------------------|
--------------------------|--------------------------|
--------------------------|--------------------------|
--4--x-4--x-4--5---5---7--|--9--x-9--x-9--9---9---9--|
--2--x-2--x-2--3---3---5--|--7--x-7--x-7--7---7---7--|
--------------------------|--------------------------|


  E  S E  S E  E.  E.  E     E  S E  S E  E.  E.  E   
--------------------------|--------------------------|
--------------------------|--------------------------|
--------------------------|--------------------------|
--7--x-7--x-7--7---7---7--|--5--x-5--x-5--5---5---5--|
--5--x-5--x-5--5---5---5--|--3--x-3--x-3--3---3---3--|
--------------------------|--------------------------|


  E  S E  S E  E.  E.  E     E  S E  S E  E.  E.  E   
--------------------------|--------------------------|
--------------------------|--------------------------|
--------------------------|--------------------------|
--4--x-4--x-4--5---5---7--|--9--x-9--x-9--9---9---9--|
--2--x-2--x-2--3---3---5--|--7--x-7--x-7--7---7---7--|
--------------------------|--------------------------|


  E  S E  S E  E.  E.  E     E  S E  S E  E.  E.  E   
--------------------------|--------------------------|
--------------------------|--------------------------|
--------------------------|--------------------------|
--7--x-7--x-7--7---7---7--|--5--x-5--x-5--5---5---5--|
--5--x-5--x-5--5---5---5--|--3--x-3--x-3--3---3---3--|
--------------------------|--------------------------|


                             Coro B                       
  E  S E  S E  E.  E.  E     E      S E  S E  E.  E.  E   
--------------------------|------------------------------|
--------------------------|------------------------------|
--------------------------|------------------------------|
--4--x-4--x-4--5---5---7--|--9------x-9--x-9--9---9---9--|
--2--x-2--x-2--3---3---5--|--7------x-7--x-7--7---7---7--|
--------------------------|------------------------------|


  E  S E  S E  E.  E.  E     E  S E  S E  E.  E.  E   
--------------------------|--------------------------|
--------------------------|--------------------------|
--------------------------|--------------------------|
--7--x-7--x-7--7---7---7--|--5--x-5--x-5--5---5---5--|
--5--x-5--x-5--5---5---5--|--3--x-3--x-3--3---3---3--|
--------------------------|--------------------------|


  E  S E  S E  E.  E.  E     E  S E  S E  E.  E.  E   
--------------------------|--------------------------|
--------------------------|--------------------------|
--------------------------|--------------------------|
--4--x-4--x-4--5---5---7--|--9--x-9--x-9--9---9---9--|
--2--x-2--x-2--3---3---5--|--7--x-7--x-7--7---7---7--|
--------------------------|--------------------------|


                             Coro A                                
  E  S E  S E  E.  E.  E     W                   W                 
--------------------------|-------------------|-------------------|
--------------------------|-------------------|-------------------|
--------------------------|--5----------------|--7----------------|
--7--x-7--x-7--7---7---7--|--5----------------|--7----------------|
--5--x-5--x-5--5---5---5--|--3----------------|--5----------------|
--------------------------|-------------------|-------------------|


  S S S S S S S S S S S S S S S S    S S S S S S S S S S S S S S S S  
----------------------------------|----------------------------------|
----------------------------------|----------------------------------|
----------------------------------|----------------------------------|
------9-x---9-x---9-x---9-x---9-9-|------9-x---9-x---9-x---9-x---9-9-|
--7-7-7-x-7-7-x-7-7-x-7-7-x-7-7-7-|--7-7-7-x-7-7-x-7-7-x-7-7-x-7-7-7-|
----------------------------------|----------------------------------|


  W                   W                 
-------------------|-------------------|
-------------------|-------------------|
--5----------------|--7----------------|
--5----------------|--7----------------|
--3----------------|--5----------------|
-------------------|-------------------|


  Verso Riff 1                                
  S            S S S S S S S S S S S S S S S  
---------------------------------------------|
---------------------------------------------|
---------------------------------------------|
-----------------9-x---9-x---9-x---9-x---9-9-|
--7------------7-7-x-7-7-x-7-7-x-7-7-x-7-7-7-|
---------------------------------------------|


  S S S S S S S S S S S S S S S S    S S S S S S S S S S S S S S S S  
----------------------------------|----------------------------------|
----------------------------------|----------------------------------|
----------------------------------|----------------------------------|
------9-x---9-x---9-x---9-x---9-9-|------7-x---7-x---7-x---7-x---7-7-|
--7-7-7-x-7-7-x-7-7-x-7-7-x-7-7-7-|--5-5-5-x-5-5-x-5-5-x-5-5-x-5-5-5-|
----------------------------------|----------------------------------|


  S S S S S S S S S S S S S S S S    S S S S S S S S S S S S S S S S  
----------------------------------|----------------------------------|
----------------------------------|----------------------------------|
----------------------------------|----------------------------------|
------9-x---9-x---9-x---9-x---9-9-|------9-x---9-x---9-x---9-x---9-9-|
--7-7-7-x-7-7-x-7-7-x-7-7-x-7-7-7-|--7-7-7-x-7-7-x-7-7-x-7-7-x-7-7-7-|
----------------------------------|----------------------------------|


  S S S S S S S S S S S S S S S S    S S S S S S S S S S S S S S S S  
----------------------------------|----------------------------------|
----------------------------------|----------------------------------|
----------------------------------|----------------------------------|
------9-x---9-x---9-x---9-x---9-9-|------7-x---7-x---7-x---7-x---7-7-|
--7-7-7-x-7-7-x-7-7-x-7-7-x-7-7-7-|--5-5-5-x-5-5-x-5-5-x-5-5-x-5-5-5-|
----------------------------------|----------------------------------|


                               Verso Riff 2                                
  S S S S S E.  E  S E.  E     S            S S S S S S S S S S S S S S S  
----------------------------|---------------------------------------------|
----------------------------|---------------------------------------------|
----------------------------|---------------------------------------------|
------9-x---9---------------|---------------------------------------------|
--7-7-7-x-7-7---5--x-7---x--|-----------------3-----3-----3-----3-----3-3-|
----------------3--x-5---x--|--1------------1-1-1-1-1-1-1-1-1-1-1-1-1-1-1-|


  S S S S S S S S S S S S S S E     E  S S S S S S E.  E.  E   
---------------------------------|----------------------------|
---------------------------------|----------------------------|
---------------------------------|----------------------------|
------------------------------3--|----------------------------|
------3-----3-----3-3-3-3-3-3-3--|--2------x-2-----5---7---x--|
--1-1-1-1-1-1-1-1-1-1-1-1-1-1-1--|--0--0-0-x-0-0-0-3---5---x--|


  H         E     S  E.   E     S S S S S S S S S S S S S S S S  
-----------------------------|----------------------------------|
-----------13br--12-13---12--|----------------------------------|
-----------------------------|----------------------------------|
-----------------------------|----------------------------------|
--2--------------------------|------3-----3-----3-----3-----3-3-|
--0--------------------------|--1-1-1-1-1-1-1-1-1-1-1-1-1-1-1-1-|


  S S S S S S S S S S S S S S E     E  S S S S S S E.  E.  E   
---------------------------------|----------------------------|
---------------------------------|----------------------------|
---------------------------------|----------------------------|
------------------------------3--|----------------------------|
------3-----3-----3-3-3-3-3-3-3--|--2------x-2-----5---7---x--|
--1-1-1-1-1-1-1-1-1-1-1-1-1-1-1--|--0--0-0-x-0-0-0-3---5---x--|


                                Coro A                                
  H         E     S  E.   E     W                   W                 
-----------------------------|-------------------|-------------------|
-----------13br--12-13---12--|-------------------|-------------------|
-----------------------------|--5----------------|--7----------------|
-----------------------------|--5----------------|--7----------------|
--2--------------------------|--3----------------|--5----------------|
--0--------------------------|-------------------|-------------------|


  S S S S S S S S S S S S S S S S    S S S S S S S S S S S S S S S S  
----------------------------------|----------------------------------|
----------------------------------|----------------------------------|
----------------------------------|----------------------------------|
------9-x---9-x---9-x---9-x---9-9-|------9-x---9-x---9-x---9-x---9-9-|
--7-7-7-x-7-7-x-7-7-x-7-7-x-7-7-7-|--7-7-7-x-7-7-x-7-7-x-7-7-x-7-7-7-|
----------------------------------|----------------------------------|


                                          Outro                                 
                                          TP                                    
  W                   W                   W                   W                 
-------------------|-------------------|-------------------|-------------------|
-------------------|-------------------|-------------------|-------------------|
--5----------------|--7----------------|--9----------------|--L----------------|
--5----------------|--7----------------|--9----------------|--L----------------|
--3----------------|--5----------------|--7----------------|--L----------------|
-------------------|-------------------|-------------------|-------------------|


                      \1/                                        
  W                   W                   E.  E.   E  H          
-------------------|-------------------|-----------------------||
-------------------|-------------------|-----------------------||
--9----------------|-------------------|--9---L\---------------||
--9----------------|-------------------|--9---L\---------------||
--7----------------|--7----------------|--7---L\---------------||
-------------------|-------------------|-----------------------||




- Voice Melody:
                                   
Bruce Dickinson

  Verso Riff 1                                    
                Wal  king through    the ci  ty,  
  E             E.   E.   S       S  S   E   E.   
---------------15---14---17-------L-15--14--15---|
-------------------------------------------------|
-------------------------------------------------|
-------------------------------------------------|
-------------------------------------------------|
-------------------------------------------------|


      loo  king oh  so  pre tty,       I've  just got to find my  
  E   E.   E.   E   E   S   E.     E   Q     E    E   S  E.   E   
-----15---14---17--14--14--15---|-----------------------15-------|
--------------------------------|-----15----15---15--15------15--|
--------------------------------|--------------------------------|
--------------------------------|--------------------------------|
--------------------------------|--------------------------------|
--------------------------------|--------------------------------|


   wa   aa ay.                  See  the  la  dies fla shing. 
   E.   S  Q    H           E   E.   E.   E   S    E   E.     
-------------------------|-----15---14---17--15---14--15-----|
--17---15----------------|-----------------------------------|
----------16-------------|-----------------------------------|
-------------------------|-----------------------------------|
-------------------------|-----------------------------------|
-------------------------|-----------------------------------|


      All  there legs and la shes.       I've  just got to find my  
  E   E.   E.    E    E   S  E.      E   Q     E    E   S  E.   E   
-----15---14----17---14--14-15----|-----------------------15-------|
----------------------------------|-----15----15---15--15------15--|
----------------------------------|--------------------------------|
----------------------------------|--------------------------------|
----------------------------------|--------------------------------|
----------------------------------|--------------------------------|


                            Verso Riff 2                                  
   wa   aa ay.                            Well you  see me    craw ling   
   E.   S  Q    H           E             E.   E.   E   T  T  E    E   S  
-------------------------|-----------------------------------------------|
--17---15----------------|---------------18------------------------------|
----------16-------------|--------------------16---17--17--L-17---17-----|
-------------------------|-----------------------------------------------|
-------------------------|-----------------------------------------------|
-------------------------|-----------------------------------------------|


   through    the bu  shes     with it o   pen    wide.            What    you 
   S       S  S   E   E   E.   S    S  E   E      H        Q.      T    T  S   
--------------------------------------17------|-------------------------------|
------------------------------18---18-----16--|--17---------------15----L-15--|
--17-------L-17--17--17-----------------------|-------------------------------|
----------------------------------------------|-------------------------------|
----------------------------------------------|-------------------------------|
----------------------------------------------|-------------------------------|


   see ing girl?                  Can't you uu  be    lieve    that fee ling, 
   S   E   Q    S H           E   E     S   E   T  T  T     T  E    E   E.    
---------------------------|-------------------------------------------------|
--19--17--17---------------|-----18------------------------------------------|
---------------------------|-----------17------16--L-17-----L-17---17--17----|
---------------------------|---------------15--------------------------------|
---------------------------|-------------------------------------------------|
---------------------------|-------------------------------------------------|


     can't    you be lieve it,     Can't    you be lieve your 
  S  T     T  S   S  S     S  E.   T     T  S   S  E     E    
--------------------------------------------------17---------|
-----------------17-18-------------------------18-------16---|
----17-----L-17-----------17------17-----L-17----------------|
-------------------------------------------------------------|
-------------------------------------------------------------|
-------------------------------------------------------------|


   eyes?            It's the    real    thing girl.            
   H        Q.      S    S      T    T  E     Q    S H         
----------------------------|--15----L------------------------|
--17------------------------|----------17----17---------------|
-------------------16---16--|---------------------------------|
----------------------------|---------------------------------|
----------------------------|---------------------------------|
----------------------------|---------------------------------|


  Coro A                                                              
          Got  me   fee  ling my        self and  ree  ling a  round, 
  E       E.   E.   E.   E.   E     E   E.   E.   E.   E.   S  S      
---------15---14-----------------|-----15---14-----------------------|
-------------------17---15---17--|---------------17---15------17-----|
---------------------------------|-------------------------16--------|
---------------------------------|-----------------------------------|
---------------------------------|-----------------------------------|
---------------------------------|-----------------------------------|


                                                Got  me   tal  king but 
   Q    H.              W                   E   E.   E.   E.   E.   E   
---------------------|-------------------|-----15---14-----------------|
---L-----------------|-------------------|---------------17---15---17--|
---------------------|-------------------|-----------------------------|
---------------------|-------------------|-----------------------------|
---------------------|-------------------|-----------------------------|
---------------------|-------------------|-----------------------------|


      feel like stal king a  round.                               
  E   E.   E.   E.   E.   S  S         W                H         
-----15---14-----------------------|-----------------------------|
---------------17---15------17-----|---L-------------------------|
-------------------------16--------|-----------------------------|
-----------------------------------|-----------------------------|
-----------------------------------|-----------------------------|
-----------------------------------|-----------------------------|


 Coro B                          
          Got  me   fee  ling my  
   E       E.   E.   E.   E.   E   
|---------15---14-----------------|
|-------------------17---15---17--|
|---------------------------------|
|---------------------------------|
|---------------------------------|
|---------------------------------|


      self and  ree  ling a...       Got  me   tal  king but 
  E   E.   E.   E.   E.   E      E   E.   E.   E.   E.   E   
-----15---14------------------|-----15---14-----------------|
---------------17---15---17---|---------------17---15---17--|
------------------------------|-----------------------------|
------------------------------|-----------------------------|
------------------------------|-----------------------------|
------------------------------|-----------------------------|


      no   thing's    with me...          Got  me   fee  ling my  
  E   E.   E       S  E.   E.   E     E   E.   E.   E.   E.   E   
-----15---14-------L---------------|-----15---14-----------------|
---------------------17---15-------|---------------17---15---17--|
-----------------------------------|-----------------------------|
-----------------------------------|-----------------------------|
-----------------------------------|-----------------------------|
-----------------------------------|-----------------------------|


                                 Coro A                                
      self and  ree  ling a      round.                                
  E   E.   E.   E.   E.   E      W                
-----15---14-----------------|--15----------------|
---------------17---15---17--|--------------------|
-----------------------------|--------------------|
-----------------------------|--------------------|
-----------------------------|--------------------|
-----------------------------|--------------------|


  Verso Riff 1                                    
                Wal  king through    the ci  ty,  
  E             E.   E.   S       S  S   E   E.   
---------------15---14---17-------L-15--14--15---|
-------------------------------------------------|
-------------------------------------------------|
-------------------------------------------------|
-------------------------------------------------|
-------------------------------------------------|


      loo  king oh  so  pre tty,       I've  just got to find my  
  E   E.   E.   E   E   S   E.     E   Q     E    E   S  E.   E   
-----15---14---17--14--14--15---|-----------------------15-------|
--------------------------------|-----15----15---15--15------15--|
--------------------------------|--------------------------------|
--------------------------------|--------------------------------|
--------------------------------|--------------------------------|
--------------------------------|--------------------------------|


   wa   aa ay.                  See  the  la  dies fla shing. 
   E.   S  Q    H           E   E.   E.   E   S    E   E.     
-------------------------|-----15---14---17--15---14--15-----|
--17---15----------------|-----------------------------------|
----------16-------------|-----------------------------------|
-------------------------|-----------------------------------|
-------------------------|-----------------------------------|
-------------------------|-----------------------------------|


      All  there legs and la shes.       I've  just got to find my  
  E   E.   E.    E    E   S  E.      E   Q     E    E   S  E.   E   
-----15---14----17---14--14-15----|-----------------------15-------|
----------------------------------|-----15----15---15--15------15--|
----------------------------------|--------------------------------|
----------------------------------|--------------------------------|
----------------------------------|--------------------------------|
----------------------------------|--------------------------------|


                                Verso Riff 2                            
   wa   aa ay.                  Well         you  see me    craw ling   
   E.   S  Q    H           E   E.           E.   E   T  T  E    E   S  
-------------------------|---------------------------------------------|
--17---15----------------|-----18--------------------------------------|
----------16-------------|------------------16---17--17--L-17---17-----|
-------------------------|---------------------------------------------|
-------------------------|---------------------------------------------|
-------------------------|---------------------------------------------|


   through    the bu  shes     with it o   pen    wide.            What    you 
   S       S  S   E   E   E.   S    S  E   E      H        Q.      T    T  S   
--------------------------------------17------|-------------------------------|
------------------------------18---18-----16--|--17---------------15----L-15--|
--17-------L-17--17--17-----------------------|-------------------------------|
----------------------------------------------|-------------------------------|
----------------------------------------------|-------------------------------|
----------------------------------------------|-------------------------------|


   see ing girl?                  Can't you uu  be    lieve    that fee ling, 
   S   E   Q    S H           E   E     S   E   T  T  T     T  E    E   E.    
---------------------------|-------------------------------------------------|
--19--17--17---------------|-----18------------------------------------------|
---------------------------|-----------17------16--L-17-----L-17---17--17----|
---------------------------|---------------15--------------------------------|
---------------------------|-------------------------------------------------|
---------------------------|-------------------------------------------------|


     can't    you be lieve it,     Can't    you be lieve your 
  S  T     T  S   S  S     S  E.   T     T  S   S  E     E    
--------------------------------------------------17---------|
-----------------17-18-------------------------18-------16---|
----17-----L-17-----------17------17-----L-17----------------|
-------------------------------------------------------------|
-------------------------------------------------------------|
-------------------------------------------------------------|


   eyes?            It's the    real    thing girl.            
   H        Q.      S    S      T    T  E     Q    S H         
----------------------------|--15----L------------------------|
--17------------------------|----------17----17---------------|
-------------------16---16--|---------------------------------|
----------------------------|---------------------------------|
----------------------------|---------------------------------|
----------------------------|---------------------------------|


      Coro A                                                        
      Got    me   fee  ling my        self and  ree  ling a  round, 
  E   E.     E.   E.   E.   E     E   E.   E.   E.   E.   S  S      
-----15-----14-----------------|-----15---14-----------------------|
-----------------17---15---17--|---------------17---15------17-----|
-------------------------------|-------------------------16--------|
-------------------------------|-----------------------------------|
-------------------------------|-----------------------------------|
-------------------------------|-----------------------------------|


                                                Got  me   tal  king but 
   Q    H.              W                   E   E.   E.   E.   E.   E   
---------------------|-------------------|-----15---14-----------------|
---L-----------------|-------------------|---------------17---15---17--|
---------------------|-------------------|-----------------------------|
---------------------|-------------------|-----------------------------|
---------------------|-------------------|-----------------------------|
---------------------|-------------------|-----------------------------|


                                       Outro                                  
      feel like wal  king a  round.                                           
  E   E.   E.   E.   E.   S  S         W                 
-----15---14-----------------------|--------------------|
---------------17---15------17-----|---L----------------|
-------------------------16--------|--------------------|
-----------------------------------|--------------------|
-----------------------------------|--------------------|
-----------------------------------|--------------------|




- Chorus:
                                    
Coro: Steve


   E   Q     E   E   S  E.   E      E.   S  Q    H         
|----------------------19-------|-------------------------|
|-----19----19--19--19------19--|--20---19----------------|
|-------------------------------|----------19-------------|
|-------------------------------|-------------------------|
|-------------------------------|-------------------------|
|-------------------------------|-------------------------|


  W                   W                   E   Q     E   E   S  E.   E   
-------------------|-------------------|----------------------19-------|
-------------------|-------------------|-----19----19--19--19------19--|
-------------------|-------------------|-------------------------------|
-------------------|-------------------|-------------------------------|
-------------------|-------------------|-------------------------------|
-------------------|-------------------|-------------------------------|


   E.   S  Q    H         
-------------------------|
--20---19----------------|
----------19-------------|
-------------------------|
-------------------------|
-------------------------|


   Coro A                          
   E       E.   E.   E.   E.   E   
|---------19---17-----------------|
|-------------------20---19---20--|
|---------------------------------|
|---------------------------------|
|---------------------------------|
|---------------------------------|


  E   E.   E.   E.   E.   S  S     Q    H.              W                 
-----19---17-------------------|---------------------|-------------------|
---------------20---19------20-|---L-----------------|-------------------|
-------------------------19----|---------------------|-------------------|
-------------------------------|---------------------|-------------------|
-------------------------------|---------------------|-------------------|
-------------------------------|---------------------|-------------------|


  E   E.   E.   E.   E.   E     E   E.   E.   E.   E.   S  S  
-----19---17-----------------|-----19---17-------------------|
---------------20---19---20--|---------------20---19------20-|
-----------------------------|-------------------------19----|
-----------------------------|-------------------------------|
-----------------------------|-------------------------------|
-----------------------------|-------------------------------|

 Coro B

  E   E.   E.   E.   E.   E     E   E.   E.   E.   E.   E   
-----19---17-----------------|-----19---17-----------------|
---------------20---19---20--|---------------20---19---20--|
-----------------------------|-----------------------------|
-----------------------------|-----------------------------|
-----------------------------|-----------------------------|
-----------------------------|-----------------------------|


   Coro A                                                    
   W                   W                   W                 
--19----------------|-------------------|-------------------|
--------------------|-------------------|-------------------|
--------------------|-------------------|-------------------|
--------------------|-------------------|-------------------|
--------------------|-------------------|-------------------|
--------------------|-------------------|-------------------|

Verso Riff 1 

   E   Q     E   E   S  E.   E      E.   S  Q    H         
|----------------------19-------|-------------------------|
|-----19----19--19--19------19--|--20---19----------------|
|-------------------------------|----------19-------------|
|-------------------------------|-------------------------|
|-------------------------------|-------------------------|
|-------------------------------|-------------------------|


  W                   W                   E   Q     E   E   S  E.   E   
-------------------|-------------------|----------------------19-------|
-------------------|-------------------|-----19----19--19--19------19--|
-------------------|-------------------|-------------------------------|
-------------------|-------------------|-------------------------------|
-------------------|-------------------|-------------------------------|
-------------------|-------------------|-------------------------------|


                          
   E.   S  Q    H         
-------------------------|
--20---19----------------|
----------19-------------|
-------------------------|
-------------------------|
-------------------------|

   Coro A                          
   E       E.   E.   E.   E.   E   
|---------19---17-----------------|
|-------------------20---19---20--|
|---------------------------------|
|---------------------------------|
|---------------------------------|
|---------------------------------|


  E   E.   E.   E.   E.   S  S     Q    H.              W                 
-----19---17-------------------|---------------------|-------------------|
---------------20---19------20-|---L-----------------|-------------------|
-------------------------19----|---------------------|-------------------|
-------------------------------|---------------------|-------------------|
-------------------------------|---------------------|-------------------|
-------------------------------|---------------------|-------------------|


  E   E.   E.   E.   E.   E     E   E.   E.   E.   E.   S  S  
-----19---17-----------------|-----19---17-------------------|
---------------20---19---20--|---------------20---19------20-|
-----------------------------|-------------------------19----|
-----------------------------|-------------------------------|
-----------------------------|-------------------------------|
-----------------------------|-------------------------------|




Duration Legend
---------------
W - whole
H - half
Q - quarter
E - 8th
S - 16th
T - 32nd
X - 64th
. - note dotted
|-n-|  - n-tuplets


Tablature Legend
----------------
L - tied note
x - dead note
g - grace note
(n) - ghost note
> - accentuded note
NH - natural harmonic
AH - artificial harmonic
TH - tapped harmonic
SH - semi harmonic
PH - pitch harmonic
h - hammer on
p - pull off
b - bend
br - bendRelease
pb - preBend
pbr - preBendRelease
brb - bendReleaseBend
\n/ - tremolo bar dip
\n - tremolo bar dive
-/n - tremolo bar Release up
/n\ - tremolo bar inverted dip
/n - tremolo bar return
-\n - tremolo bar Release down
S - shift slide
s - legato slide
/ -  slide into from below or out of upwards
\ -  slide into from above or out of downwards
~ - vibrato
W - wide vibrato
tr - trill
TP - tremolo picking
T - tapping
S - slap
P - pop
< - fade in
^ - brush up
v - brush down

            
            
Suggest correction
Creating personal tab
Creating personal tab
You can edit any tab online and save it as your Personal.

You can edit, replace or remove any tab part or add personal notes – all changes will be seen only by you.

Personal tabs can be accessed anytime from any device, even offline.
Learn more »
comments
print report bad tab
guest
You may want to rate the tab now too:
select rating
Wanna post a correction for this tab? Suggest correction