Oops, an error
Loading. Please wait.

Reach Out bass

version 1
version 1

Whole song

Interactive

194 views 1 this week
no commentswrite comment
1 2 3 4 5
3 more votes to show rating
add to favorites
×
Save as Personal and add changes to this tab that will be seen only by you. Learn more ›
×
You can save this tab as Personal to edit and correct it or add notes. All changes will be seen only by you. Learn more »
launch autoscroll
font size
0
reset
guitar tuner
edit
Autoscroll
slow
fast
+/-
esc
set tempo
stop
Author
Difficulty
Reach Out by Iron Maiden
From the B-side of the single Wasted Years (1986)
Written by Dave Colwell
All rights belong to their respective owners

Tabbed by Jaakko Karppinen


Intro (rest for the first 6 bars)
|------------------------------------------------------------------|
|------------------------------------------------------------------|
|------------------------------------------------------------------|
|---------------------------------5--------------------------------|

||--------------------------------------------------------------------|
||-o------------------------------------------------------------------|
||-o-----.-------------------------------.----------------------------|
||---0---0---------------------------5---5----------------------------|

|--------------------------------------------------------------------||
|-----.------------------------------------------------------------o-||
|-4---4-----------.------------------------------------------------o-||
|-------------5---5-------7---7---------------------------\12/-------||


Verse 1
|------------------------------------------------------------------|
|------------------------------------------------------------------|
|-7---7---7---7-------7---7---7------------------------------------|
|---------------------------------5---5---5---5-------5---5---5----|

|------------------------------------------------------------------|
|-------------------------------------9---9-9-9-------9---9-9-9----|
|-4---4---4---4---4---4---4---4------------------------------------|
|---------------------------------7---------------7----------------|

|------------------------------------------------------------------|
|------------------------------------------------------------------|
|-7---7---7---7---7---7---7---7------------------------------------|
|---------------------------------5---5---5---5-------5---5---5----|

|------------------------------------------------------------------|
|------------------------------------------------------------------|
|-4---4---4---4---4---4---4---4------------------------------------|
|---------------------------------7---7---7---7---7---7---7---0----|


Pre-Chorus
|------------------------------------------------------------------|
|-----------------------------9-----------------------7------------|
|---------------------9---------------------------7-----------7----|
|-7-------7-------7---------------5-------5------------------------|

|------------------------------------------------------------------|
|------------------------------------------------------------------|
|-----------------2------------------------------------------------|
|-4-------4-----------4-------0---2---2---2---2---2---2---2---0----|


Chorus 1
|------------------------------------------------------------------|
|------------------------------------------------------------------|
|-7---7---7---7-------7---7---7---7---7---7---7---7---7---7---7----|
|------------------------------------------------------------------|

|------------------------------------------------------------------|
|------------------------------------------------------------------|
|---------------------------------2---2---2---2---2---2---2---2----|
|-5---5---5---5---5---5---5---5------------------------------------|

|------------------------------------------------------------------|
|------------------------------------------------------------------|
|-4---4---4---4---4---4---4---4---2---2---2---2---2---2---2---2----|
|------------------------------------------------------------------|

|------------------------------------------------------------------|
|-------------.----------------------------------------------------|
|-5---5---5---5-------4--------------------------------------------|
|-------------------------5-------------------------------\12/-----|


Verse 2
|------------------------------------------------------------------|
|------------------------------------------------------------------|
|-7---7---7---7---7---7---7---7------------------------------------|
|---------------------------------5---5---5---5-------5---5---5----|

|------------------------------------------------------------------|
|-------------------------------------9---9-9-9-------9---9-9-9----|
|-4---4---4---4---4---4---4---4------------------------------------|
|---------------------------------7---------------7----------------|

|------------------------------------------------------------------|
|------------------------------------------------------------------|
|-7---7---7---7---7---7---7---7------------------------------------|
|---------------------------------5---5---5---5-------5---5---5----|

|------------------------------------------------------------------|
|---------------------------------------------------------9~-------|
|-4---4---4---4---4---4---4---4-----------------------9-------9----|
|---------------------------------7---7---7---7---7----------------|


Pre-Chorus


Chorus 2
||--------------------------------------------------------------------|
||-o------------------------------------------------------------------|
||-o-7---7---7---7-------7---7---7---7---7---7---7---7---7---7---7----|
||--------------------------------------------------------------------|

|------------------------------------------------------------------|
|------------------------------------------------------------------|
|---------------------------------2---2---2---2---2---2---2---2----|
|-5---5---5---5---5---5---5---5------------------------------------|

|--------------------------------------------------------------------||
|------------------------------------------------------------------o-||
|-4---4---4---4---4---4---4---4---2---2---2---2---2---2---2---2----o-||
|--------------------------------------------------------------------||

|------------------------------------------------------------------|
|-------------.----------------------------------------------------|
|-5---5---5---5-------4--------------------------------------------|
|-------------------------5-------------------------------\12/-----|


Instrumental
||--------------------------------------------------------------------|
||-o------------------------------------------------------------------|
||-o------------------------------------------------------------------|
||---0---0---0---0-------0---0---0---5---5---5---5-------5---5---5----|

|-----------------------------------------------------7~-------------||
|-----------------------------------------5---7---7-------7---5----o-||
|-4---4---4---4-------4---4---4---5---5----------------------------o-||
|--------------------------------------------------------------------||


Guitar Solo
|------------------------------------------------------------------|
|-----------------------------9-----------------------7------------|
|---------------------9---------------------------7-----------7----|
|-7-------7-------7---------------5-------5------------------------|

|------------------------------------------------------------------|
|------------------------------------------------------------------|
|-----------------2------------------------------------------------|
|-4-------4-----------4-------0---2---2---2---2---2---2---2---0----|

|------------------------------------------------------------------|
|---------------------9---------------------------7----------------|
|-----------------9-----------9-----------------------7------------|
|-7-------7-----------------------5-------5-------------------5----|

|------------------------------------------------------------------|
|------------------------------------------------------------------|
|-----------------2------------------------------------------------|
|-4-------4-----------4-------0---2---2---2---2---2---2---2---0----|


Verse 3
|------------------------------------------------------------------|
|------------------------------------------------------------------|
|-7---7---7---7-------7---7---7------------------------------------|
|---------------------------------5---5---5---5-------5---5---5----|

|------------------------------------------------------------------|
|-------------------------------------9---9-9-9-------9---9-9-9----|
|-4---4---4---4---4---4---4---4------------------------------------|
|---------------------------------7---------------7----------------|
     
|------------------------------------------------------------------|
|------------------------------------------------------------------|
|-7---7---7---7-------7---7---7------------------------------------|
|---------------------------------5---5---5---5-------5---5---5----|
                                                               
|------------------------------------------------------------------|
|-------------------------------------------------9----------------|
|-4---4---4---4---4---4---4---4-----------7---9-------9---7--------|
|---------------------------------7---7-----------------------0----|


Pre-Chorus


Chorus 3
|------------------------------------------------------------------|
|------------------------------------------------------------------|
|-7---7---7---7-------7---7---7---7---7---7---7---7---7---7---7----|
|------------------------------------------------------------------|

|------------------------------------------------------------------|
|------------------------------------------------------------------|
|---------------------------------2---2---2---2---2---2---2---2----|
|-5---5---5---5---5---5---5---5------------------------------------|

|-------------------------------------------------4~---------------|
|-----------------------------------------2---4-------4---2--------|
|-4---4---4---4---4---4---4---4---2---2-----------------------0----|
|------------------------------------------------------------------|

|------------------------------------------------------------------|
|------------------------------------------------------------------|
|-7---7---7---7-------7---7---7---7---7---7---7---7---7---7---7----|
|------------------------------------------------------------------|

|------------------------------------------------------------------|
|------------------------------------------------------------------|
|---------------------------------2---2---2---2---2---2---2---2----|
|-5---5---5---5---5---5---5---5------------------------------------|

|------------------------------------------------------------------|
|------------------------------------------------------------------|
|-4---4---4---4---4---4---4---4---2---2---2---2---2---2---2---2----|
|------------------------------------------------------------------|


Bridge
|------------------------------------------------------------------|
|-7---7---7---6---6---6---4---4---4---------------4---4---6---6----|
|-------------------------------------7---7---7--------------------|
|------------------------------------------------------------------|


Chorus 4
|------------------------------------------------------------------|
|------------------------------------------------------------------|
|-7---7---7---7-------7---7---7---7---7---7---7---7---7---7---7----|
|------------------------------------------------------------------|

|-------------------------------------------------4~---------------|
|---------------------------------------------4-------4~-----------|
|---------------------------------2---2---2------------------------|
|-5---5---5---5---5---5---5---5------------------------------------|

|------------------------------------------------------------------|
|------------------------------------------------------------------|
|-4---4---4---4---4---4---4---4---2---2---2---2---2---2---2---2----|
|------------------------------------------------------------------|

|------------------------------------------------------------------|
|-------------.----------------------------------------------------|
|-5---5---5---5-------4--------------------------------------------|
|-------------------------5-------------------------------\12/-----|


Outro (don't do the slide at the second time)
||--------------------------------------------------------------------|
||-o------------------------------------------------------------------|
||-o-----.-------------------------------.----------------------------|
||---0---0---------------------------5---5----------------------------|

|--------------------------------------------------------------------||
|-----.------------------------------------------------------------o-||
|-4---4-----------.------------------------------------------------o-||
|-------------5---5-------7---7---------------------------\12/-------||

            
            
Suggest correction
Creating personal tab
Creating personal tab
You can edit any tab online and save it as your Personal.

You can edit, replace or remove any tab part or add personal notes – all changes will be seen only by you.

Personal tabs can be accessed anytime from any device, even offline.
Learn more »
Give kudos to tab author, rate the tab!
1 2 3 4 5
comments
print report bad tab
guest
You may want to rate the tab now too:
select rating
Wanna post a correction for this tab? Suggest correction