Oops, an error
Loading. Please wait.

Running Free tab

version 4
version 4
687 views 1 this week
no commentswrite comment
1 2 3 4 5
x 5
add to favorites
×
Save as Personal and add changes to this tab that will be seen only by you. Learn more ›
×
You can save this tab as Personal to edit and correct it or add notes. All changes will be seen only by you. Learn more »
launch autoscroll
font size
0
reset
how to read this tab
guitar tuner
backing track
0:00
0:00
edit
Autoscroll
slow
fast
+/-
esc
set tempo
stop
Author
Difficulty
                                 Running Free                                   

                                  Iron Maiden

Instruments:
- G #1
- G #2
- G #3
- Voice Melody
- Chorus



Guitar #1:

Dave Murray


          Intro                                                     
     S    W                   W                   W                 
E||----|-------------------|-------------------|-------------------|
B||----|-------------------|-------------------|-------------------|
G||----|-------------------|-------------------|-------------------|
D||----|-------------------|-------------------|-------------------|
A||----|-------------------|-------------------|-------------------|
E||----|-------------------|-------------------|-------------------|


  Bass Riff                                                                     
  W                   W                   W                   W                 
-------------------|-------------------|-------------------|-------------------|
-------------------|-------------------|-------------------|-------------------|
-------------------|-------------------|-------------------|-------------------|
-------------------|-------------------|-------------------|-------------------|
-------------------|-------------------|-------------------|-------------------|
-------------------|-------------------|-------------------|-------------------|


  W                   W                   W                   W                 
-------------------|-------------------|-------------------|-------------------|
-------------------|-------------------|-------------------|-------------------|
-------------------|-------------------|-------------------|-------------------|
-------------------|-------------------|-------------------|-------------------|
-------------------|-------------------|-------------------|-------------------|
-------------------|-------------------|-------------------|-------------------|


                      Riff A                                    
  W                   W                   Q.      Q.      Q     
-------------------|-------------------|-----------------------|
-------------------|-------------------|-----------------------|
-------------------|--9----------------|--L------12------11----|
-------------------|--9----------------|--L------12------11----|
-------------------|--7----------------|--L------10-------9----|
-------------------|-------------------|-----------------------|


                      |--3--|       |--3--|                            
  W                   E  E  E  Q    E  E  E  Q       W                 
-------------------|------------------------------|-------------------|
-------------------|------------------------------|-------------------|
--9----------------|--x--x--x--5----x--x--x--7----|--9----------------|
--9----------------|--x--x--x--5----x--x--x--7----|--9----------------|
--7----------------|--x--x--x--3----x--x--x--5----|--7----------------|
-------------------|------------------------------|-------------------|


                                              |--3--|       |--3--|        
  Q.      Q.      Q       W                   E  E  E  Q    E  E  E  Q     
-----------------------|-------------------|------------------------------|
-----------------------|-------------------|------------------------------|
--L------12------11----|--9----------------|--x--x--x--5----x--x--x--7----|
--L------12------11----|--9----------------|--x--x--x--5----x--x--x--7----|
--L------10-------9----|--7----------------|--x--x--x--3----x--x--x--5----|
-----------------------|-------------------|------------------------------|


  Verso Riff                                                        
             |--3--|       |--3--|          |--3--|       |--3--|   
  Q          E  E  E  Q    E  E  E     Q    E  E  E  Q    E  E  E   
------------------------------------|------------------------------|
------------------------------------|------------------------------|
--9----------x--x--x--9----x--x--x--|--5----x--x--x--7----x--x--x--|
--9----------x--x--x--9----x--x--x--|--5----x--x--x--7----x--x--x--|
--7----------x--x--x--7----x--x--x--|--3----x--x--x--5----x--x--x--|
------------------------------------|------------------------------|


       |--3--|       |--3--|          |--3--|       |--3--|   
  Q    E  E  E  Q    E  E  E     Q    E  E  E  Q    E  E  E   
------------------------------|------------------------------|
------------------------------|------------------------------|
--9----x--x--x--9----x--x--x--|------------------------------|
--9----x--x--x--9----x--x--x--|--5----x--x--x--7----x--x--x--|
--7----x--x--x--7----x--x--x--|--5----x--x--x--7----x--x--x--|
------------------------------|--3----x--x--x--5----x--x--x--|


       |--3--|       |--3--|          |--3--|       |--3--|   
  Q    E  E  E  Q    E  E  E     Q    E  E  E  Q    E  E  E   
------------------------------|------------------------------|
------------------------------|------------------------------|
--9----x--x--x--9----x--x--x--|--5----x--x--x--7----x--x--x--|
--9----x--x--x--9----x--x--x--|--5----x--x--x--7----x--x--x--|
--7----x--x--x--7----x--x--x--|--3----x--x--x--5----x--x--x--|
------------------------------|------------------------------|


       |--3--|       |--3--|          |--3--|       |--3--|   
  Q    E  E  E  Q    E  E  E     Q    E  E  E  Q    E  E  E   
------------------------------|------------------------------|
------------------------------|------------------------------|
--9----x--x--x--9----x--x--x--|------------------------------|
--9----x--x--x--9----x--x--x--|--5----x--x--x--7----x--x--x--|
--7----x--x--x--7----x--x--x--|--5----x--x--x--7----x--x--x--|
------------------------------|--3----x--x--x--5----x--x--x--|


  Coro A                                                                   
                                                                 |--3--|   
  H.            E   E     Q.     Q.     E  E     Q    E  E  Q    E  E  E   
-----------------------|----------------------|---------------------------|
-----------------------|----------------------|---------------------------|
--9-------------L--12--|--L------9------7--9--|--L----x--9--L----x--x--x--|
--9-------------L--12--|--L------9------7--9--|--L----x--9--L----x--x--x--|
--7-------------L--10--|--L------7------5--7--|--L----x--7--L----x--x--x--|
-----------------------|----------------------|---------------------------|


       |--3--|       |--3--|                                                  
  Q    E  E  E  Q    E  E  E     H.            E   E     Q.     Q.     E  E   
------------------------------|-----------------------|----------------------|
------------------------------|-----------------------|----------------------|
--5----x--x--x--7----x--x--x--|--9-------------L--12--|--L------9------7--9--|
--5----x--x--x--7----x--x--x--|--9-------------L--12--|--L------9------7--9--|
--3----x--x--x--5----x--x--x--|--7-------------L--10--|--L------7------5--7--|
------------------------------|-----------------------|----------------------|


                  |--3--|          |--3--|       |--3--|   
  Q    E  E  Q    E  E  E     Q    E  E  E  Q    E  E  E   
---------------------------|------------------------------|
---------------------------|------------------------------|
--L----x--9--L----x--x--x--|--5----x--x--x--7----x--x--x--|
--L----x--9--L----x--x--x--|--5----x--x--x--7----x--x--x--|
--L----x--7--L----x--x--x--|--3----x--x--x--5----x--x--x--|
---------------------------|------------------------------|


  Verso Riff                                                        
             |--3--|       |--3--|          |--3--|       |--3--|   
  Q          E  E  E  Q    E  E  E     Q    E  E  E  Q    E  E  E   
------------------------------------|------------------------------|
------------------------------------|------------------------------|
--9----------x--x--x--9----x--x--x--|--5----x--x--x--7----x--x--x--|
--9----------x--x--x--9----x--x--x--|--5----x--x--x--7----x--x--x--|
--7----------x--x--x--7----x--x--x--|--3----x--x--x--5----x--x--x--|
------------------------------------|------------------------------|


       |--3--|       |--3--|          |--3--|       |--3--|   
  Q    E  E  E  Q    E  E  E     Q    E  E  E  Q    E  E  E   
------------------------------|------------------------------|
------------------------------|------------------------------|
--9----x--x--x--9----x--x--x--|------------------------------|
--9----x--x--x--9----x--x--x--|--5----x--x--x--7----x--x--x--|
--7----x--x--x--7----x--x--x--|--5----x--x--x--7----x--x--x--|
------------------------------|--3----x--x--x--5----x--x--x--|


       |--3--|       |--3--|          |--3--|       |--3--|   
  Q    E  E  E  Q    E  E  E     Q    E  E  E  Q    E  E  E   
------------------------------|------------------------------|
------------------------------|------------------------------|
--9----x--x--x--9----x--x--x--|--5----x--x--x--7----x--x--x--|
--9----x--x--x--9----x--x--x--|--5----x--x--x--7----x--x--x--|
--7----x--x--x--7----x--x--x--|--3----x--x--x--5----x--x--x--|
------------------------------|------------------------------|


       |--3--|       |--3--|          |--3--|       |--3--|   
  Q    E  E  E  Q    E  E  E     Q    E  E  E  Q    E  E  E   
------------------------------|------------------------------|
------------------------------|------------------------------|
--9----x--x--x--9----x--x--x--|------------------------------|
--9----x--x--x--9----x--x--x--|--5----x--x--x--7----x--x--x--|
--7----x--x--x--7----x--x--x--|--5----x--x--x--7----x--x--x--|
------------------------------|--3----x--x--x--5----x--x--x--|


  Coro A                                                                   
                                                                 |--3--|   
  H.            E   E     Q.     Q.     E  E     Q    E  E  Q    E  E  E   
-----------------------|----------------------|---------------------------|
-----------------------|----------------------|---------------------------|
--9-------------L--12--|--L------9------7--9--|--L----x--9--L----x--x--x--|
--9-------------L--12--|--L------9------7--9--|--L----x--9--L----x--x--x--|
--7-------------L--10--|--L------7------5--7--|--L----x--7--L----x--x--x--|
-----------------------|----------------------|---------------------------|


       |--3--|       |--3--|                                                  
  Q    E  E  E  Q    E  E  E     H.            E   E     Q.     Q.     E  E   
------------------------------|-----------------------|----------------------|
------------------------------|-----------------------|----------------------|
--5----x--x--x--7----x--x--x--|--9-------------L--12--|--L------9------7--9--|
--5----x--x--x--7----x--x--x--|--9-------------L--12--|--L------9------7--9--|
--3----x--x--x--5----x--x--x--|--7-------------L--10--|--L------7------5--7--|
------------------------------|-----------------------|----------------------|


                  |--3--|          |--3--|       |--3--|   
  Q    E  E  Q    E  E  E     Q    E  E  E  Q    E  E  E   
---------------------------|------------------------------|
---------------------------|------------------------------|
--L----x--9--L----x--x--x--|--5----x--x--x--7----x--x--x--|
--L----x--9--L----x--x--x--|--5----x--x--x--7----x--x--x--|
--L----x--7--L----x--x--x--|--3----x--x--x--5----x--x--x--|
---------------------------|------------------------------|


   Interludio                                                   
   |-------3------|    |----3---|    |----3---|    |---3---|    
   E          E   E    E    E   E    E    E   E    E    E  E    
---------------------------------------------------------------|
---------------------------------------------------------------|
--18p--------16--14h--16p--14--12h--14p--12--11h--12p--11--9h--|
---------------------------------------------------------------|
---------------------------------------------------------------|
---------------------------------------------------------------|


   |---3--|   |---3--|   |---3--|        
   E   E  E   E   E  E   E   E  E  Q     
----------------------------------------|
----------------------------------------|
--11p--9--7h--9p--7--6h--7p--6----------|
--------------------------------9--7----|
----------------------------------------|
----------------------------------------|


   |----3---|    |----3---|    |----3---|    |---3---|    
   E    E   E    E    E   E    E    E   E    E    E  E    
---------------------------------------------------------|
---------------------------------------------------------|
--18p--16--14h--16p--14--12h--14p--12--11h--12p--11--9h--|
---------------------------------------------------------|
---------------------------------------------------------|
---------------------------------------------------------|


   |---3--|   |---3--|   |---3--|        
   E   E  E   E   E  E   E   E  E  Q     
----------------------------------------|
----------------------------------------|
--11p--9--7h--9p--7--6h--7p--6----------|
--------------------------------9--7----|
----------------------------------------|
----------------------------------------|


   |----3---|    |----3---|    |----3---|    |---3---|    
   E    E   E    E    E   E    E    E   E    E    E  E    
--17p--15--14h--15p--14--12h--14p--12--10h--12p--10--9h--|
---------------------------------------------------------|
---------------------------------------------------------|
---------------------------------------------------------|
---------------------------------------------------------|
---------------------------------------------------------|


   |---3--|   |---3--|   |---3--|        
   E   E  E   E   E  E   E   E  E  Q     
--10p--9--7h--9p--7--5h--7p--5----------|
--------------------------------8--7----|
----------------------------------------|
----------------------------------------|
----------------------------------------|
----------------------------------------|


   |----3---|    |----3---|    |----3---|    |---3---|    
   E    E   E    E    E   E    E    E   E    E    E  E    
--17p--15--14h--15p--14--12h--14p--12--10h--12p--10--9h--|
---------------------------------------------------------|
---------------------------------------------------------|
---------------------------------------------------------|
---------------------------------------------------------|
---------------------------------------------------------|


   |---3--|   |---3--|   |---3--|          |---3--|       |---3--|        
   E   E  E   E   E  E   E   E  E  Q       E   E  E  Q    E   E  E  Q     
--10p--9--7h--9p--7--5h--7p--5----------|--7p--5----------7p--5----------|
--------------------------------8--7----|---------8--7-----------8--7----|
----------------------------------------|--------------------------------|
----------------------------------------|--------------------------------|
----------------------------------------|--------------------------------|
----------------------------------------|--------------------------------|


  |---3--|  |---3--|  |---3--|        
  E   E  E  E   E  E  E   E  E  Q     
--7p--5-----7p--5-----7p--5----------|
---------8---------8---------8--7----|
-------------------------------------|
-------------------------------------|
-------------------------------------|
-------------------------------------|


    Riff B                                   
    |----3----|  |--3--|  |--3--|  |--3--|   
    E      E  E  E  E  E  E  E  E  E  E  E   
|-------------------------------------------|
|-------------------------------------------|
|*--x------L--x--x--L--x--x--L--x--x--L--x--|
|*--x------L--x--x--L--x--x--L--x--x--L--x--|
|---x------L--x--x--L--x--x--L--x--x--L--x--|
|---x------L--x--x--L--x--x--L--x--x--L--x--|


  |--3--|  |--3--|  |--3--|  |--3--|     |--3--|  |--3--|  |--3--|  |--3--|   
  E  E  E  E  E  E  E  E  E  E  E  E     E  E  E  E  E  E  E  E  E  E  E  E   
--------------------------------------|--------------------------------------|
--------------------------------------|--------------------------------------|
--x--L--x--x--L--x--x--L--x--x--L--x--|--x--L--x--x--L--x--x--L--x--x--L--x--|
--x--L--x--x--L--x--x--L--x--x--L--x--|--x--L--x--x--L--x--x--L--x--x--L--x--|
--x--L--x--x--L--x--x--L--x--x--L--x--|--x--L--x--x--L--x--x--L--x--x--L--x--|
--x--L--x--x--L--x--x--L--x--x--L--x--|--x--L--x--x--L--x--x--L--x--x--L--x--|


   |---3---|   |----3----|   |---3---|            
   E   E   E   E    E    E   E   E   E   Q      3x
------------------------------------------------||
----------------------------------------12\-----||
--12--12--12--11h--12p--11---------------------*||
----------------------------12--12--12---------*||
------------------------------------------------||
------------------------------------------------||


  |--3--|  |--3--|  |--3--|  |--3--|     |--3--|  |--3--|  |--3--|  |--3--|   
  E  E  E  E  E  E  E  E  E  E  E  E     E  E  E  E  E  E  E  E  E  E  E  E   
--------------------------------------|--------------------------------------|
--------------------------------------|--------------------------------------|
--x--L--x--x--L--x--x--L--x--x--L--x--|--x--L--x--x--L--x--x--L--x--x--L--x--|
--x--L--x--x--L--x--x--L--x--x--L--x--|--x--L--x--x--L--x--x--L--x--x--L--x--|
--x--L--x--x--L--x--x--L--x--x--L--x--|--x--L--x--x--L--x--x--L--x--x--L--x--|
--x--L--x--x--L--x--x--L--x--x--L--x--|--x--L--x--x--L--x--x--L--x--x--L--x--|


  |--3--|  |--3--|  |--3--|  |--3--|     |--3--|  3  3             3   
  E  E  E  E  E  E  E  E  E  E  E  E     E  E  E  E  E  E.  S Q    E   
--------------------------------------|-------------------------------|
--------------------------------------|-------------------------------|
--x--L--x--x--L--x--x--L--x--x--L--x--|--x--L--x--x--L--5-----7-------|
--x--L--x--x--L--x--x--L--x--x--L--x--|--x--L--x--x--L--5-----7-------|
--x--L--x--x--L--x--x--L--x--x--L--x--|--x--L--x--x--L--3-----5-------|
--x--L--x--x--L--x--x--L--x--x--L--x--|--x--L--x--x--L----------------|


  Coro A                                                                   
                                                                 |--3--|   
  H.            E   E     Q.     Q.     E  E     Q    E  E  Q    E  E  E   
-----------------------|----------------------|---------------------------|
-----------------------|----------------------|---------------------------|
--9-------------L--12--|--L------9------7--9--|--L----x--9--L----x--x--x--|
--9-------------L--12--|--L------9------7--9--|--L----x--9--L----x--x--x--|
--7-------------L--10--|--L------7------5--7--|--L----x--7--L----x--x--x--|
-----------------------|----------------------|---------------------------|


       |--3--|       |--3--|                                                  
  Q    E  E  E  Q    E  E  E     H.            E   E     Q.     Q.     E  E   
------------------------------|-----------------------|----------------------|
------------------------------|-----------------------|----------------------|
--5----x--x--x--7----x--x--x--|--9-------------L--12--|--L------9------7--9--|
--5----x--x--x--7----x--x--x--|--9-------------L--12--|--L------9------7--9--|
--3----x--x--x--5----x--x--x--|--7-------------L--10--|--L------7------5--7--|
------------------------------|-----------------------|----------------------|


                  |--3--|          |--3--|       |--3--|   
  Q    E  E  Q    E  E  E     Q    E  E  E  Q    E  E  E   
---------------------------|------------------------------|
---------------------------|------------------------------|
--L----x--9--L----x--x--x--|--5----x--x--x--7----x--x--x--|
--L----x--9--L----x--x--x--|--5----x--x--x--7----x--x--x--|
--L----x--7--L----x--x--x--|--3----x--x--x--5----x--x--x--|
---------------------------|------------------------------|


  Riff C                                                        
  |----3----|           3   |-3|    |--3--|           3   |-3|  
  E      E  E  H        E.  E  S    E  E  E  H        E.  E  S  
---------------------------------|-----------------------------|
---------------------------------|-----------------------------|
--9------L--9---------------7--L-|--9--L--9---------------7--L-|
--9------L--9---------------7--L-|--9--L--9---------------7--L-|
--7------L--7---------------5--L-|--7--L--7---------------5--L-|
---------------------------------|-----------------------------|


  |--3--|           3   |-3|    |------3------|  |------3------|   
  E  E  E  H        E.  E  S    E  E  Q    E  E  E  E  Q    E  E   
-----------------------------|------------------------------------|
-----------------------------|------------------------------------|
--9--L--9---------------4--L-|--5--L--5-------5--7--L--7-------7--|
--9--L--9---------------4--L-|--5--L--5-------5--7--L--7-------7--|
--7--L--7---------------2--L-|--3--L--3-------3--5--L--5-------5--|
-----------------------------|------------------------------------|


  |--3--|           3   |-3|    |--3--|           3   |-3|  
  E  E  E  H        E.  E  S    E  E  E  H        E.  E  S  
-----------------------------|-----------------------------|
-----------------------------|-----------------------------|
--9--L--9---------------7--L-|--9--L--9---------------7--L-|
--9--L--9---------------7--L-|--9--L--9---------------7--L-|
--7--L--7---------------5--L-|--7--L--7---------------5--L-|
-----------------------------|-----------------------------|


  |--3--|           3   |-3|    |------3------|  |------3------|   
  E  E  E  H        E.  E  S    E  E  Q    E  E  E  E  Q    E  E   
-----------------------------|------------------------------------|
-----------------------------|------------------------------------|
--9--L--9---------------4--L-|--5--L--5-------5--7--L--7-------7--|
--9--L--9---------------4--L-|--5--L--5-------5--7--L--7-------7--|
--7--L--7---------------2--L-|--3--L--3-------3--5--L--5-------5--|
-----------------------------|------------------------------------|


    Riff D                                        
    |----3----|  |---3--|    |---3---|   |--3-|   
    E      E  E  E  E   E    E    E  E   Q    E   
|------------------------------------------------|
|----------------------10h--12p--10--8--10-------|
|*--9------L--9-------------------------------7--|
|*--9------L--9-------------------------------7--|
|---7------L--7-------------------------------5--|
|------------------------------------------------|


  |--3--|  |---3--|    |---3---|   |--3-|   
  E  E  E  E  E   E    E    E  E   Q    E   
-------------------------------------------|
-----------------10h--12p--10--8--10-------|
--9--L--9-------------------------------7--|
--9--L--9-------------------------------7--|
--7--L--7-------------------------------5--|
-------------------------------------------|


  |--3--|  |---3--|    |---3---|   |--3-|   
  E  E  E  E  E   E    E    E  E   Q    E   
-------------------------------------------|
-----------------10h--12p--10--8--10-------|
--9--L--9-------------------------------4--|
--9--L--9-------------------------------4--|
--7--L--7-------------------------------2--|
-------------------------------------------|


  |------3------|  |------3------|       |------3------|  |------3------|   
  E  E  Q    E  E  E  E  Q    E  E       E  E  Q    E  E  E  E  Q    E  E   
-------------------------------------||------------------------------------|
-------------------------------------||------------------------------------|
--5--L--5-------5--7--L--7-------7--*||--5--L--5-------5--7--L--7-------7--|
--5--L--5-------5--7--L--7-------7--*||--5--L--5-------5--7--L--7-------7--|
--3--L--3-------3--5--L--5-------5---||--3--L--3-------3--5--L--5-------5--|
-------------------------------------||------------------------------------|


  Verso Riff                                                        
             |--3--|       |--3--|          |--3--|       |--3--|   
  Q          E  E  E  Q    E  E  E     Q    E  E  E  Q    E  E  E   
------------------------------------|------------------------------|
------------------------------------|------------------------------|
--9----------x--x--x--9----x--x--x--|--5----x--x--x--7----x--x--x--|
--9----------x--x--x--9----x--x--x--|--5----x--x--x--7----x--x--x--|
--7----------x--x--x--7----x--x--x--|--3----x--x--x--5----x--x--x--|
------------------------------------|------------------------------|


       |--3--|       |--3--|          |--3--|       |--3--|   
  Q    E  E  E  Q    E  E  E     Q    E  E  E  Q    E  E  E   
------------------------------|------------------------------|
------------------------------|------------------------------|
--9----x--x--x--9----x--x--x--|------------------------------|
--9----x--x--x--9----x--x--x--|--5----x--x--x--7----x--x--x--|
--7----x--x--x--7----x--x--x--|--5----x--x--x--7----x--x--x--|
------------------------------|--3----x--x--x--5----x--x--x--|


       |--3--|       |--3--|          |--3--|       |--3--|   
  Q    E  E  E  Q    E  E  E     Q    E  E  E  Q    E  E  E   
------------------------------|------------------------------|
------------------------------|------------------------------|
--9----x--x--x--9----x--x--x--|--5----x--x--x--7----x--x--x--|
--9----x--x--x--9----x--x--x--|--5----x--x--x--7----x--x--x--|
--7----x--x--x--7----x--x--x--|--3----x--x--x--5----x--x--x--|
------------------------------|------------------------------|


       |--3--|       |--3--|          |--3--|       |--3--|   
  Q    E  E  E  Q    E  E  E     Q    E  E  E  Q    E  E  E   
------------------------------|------------------------------|
------------------------------|------------------------------|
--9----x--x--x--9----x--x--x--|------------------------------|
--9----x--x--x--9----x--x--x--|--5----x--x--x--7----x--x--x--|
--7----x--x--x--7----x--x--x--|--5----x--x--x--7----x--x--x--|
------------------------------|--3----x--x--x--5----x--x--x--|


  Coro A                                                                   
                                                                 |--3--|   
  H.            E   E     Q.     Q.     E  E     Q    E  E  Q    E  E  E   
-----------------------|----------------------|---------------------------|
-----------------------|----------------------|---------------------------|
--9-------------L--12--|--L------9------7--9--|--L----x--9--L----x--x--x--|
--9-------------L--12--|--L------9------7--9--|--L----x--9--L----x--x--x--|
--7-------------L--10--|--L------7------5--7--|--L----x--7--L----x--x--x--|
-----------------------|----------------------|---------------------------|


       |--3--|       |--3--|                                                  
  Q    E  E  E  Q    E  E  E     H.            E   E     Q.     Q.     E  E   
------------------------------|-----------------------|----------------------|
------------------------------|-----------------------|----------------------|
--5----x--x--x--7----x--x--x--|--9-------------L--12--|--L------9------7--9--|
--5----x--x--x--7----x--x--x--|--9-------------L--12--|--L------9------7--9--|
--3----x--x--x--5----x--x--x--|--7-------------L--10--|--L------7------5--7--|
------------------------------|-----------------------|----------------------|


                  |--3--|          |--3--|       |--3--|   
  Q    E  E  Q    E  E  E     Q    E  E  E  Q    E  E  E   
---------------------------|------------------------------|
---------------------------|------------------------------|
--L----x--9--L----x--x--x--|--5----x--x--x--7----x--x--x--|
--L----x--9--L----x--x--x--|--5----x--x--x--7----x--x--x--|
--L----x--7--L----x--x--x--|--3----x--x--x--5----x--x--x--|
---------------------------|------------------------------|


  Coro B                                                                
  H.           E  E       H.           E   E       H.           E  E    
----------------------|------------------------|-----------------------|
----------------------|------------------------|-----------------------|
--9------------L--9s--|--12------------L--12s--|--14------------L--4s--|
--9------------L--9s--|--12------------L--12s--|--14------------L--4s--|
--7------------L--7s--|--10------------L--10s--|--12------------L--2s--|
----------------------|------------------------|-----------------------|


  3        3     3        3                             
  H        S E   H        S E      H.           E  E    
--------------------------------|----------------------|
--------------------------------|----------------------|
--5----------5s--7----------7s--|--9------------L--9s--|
--5----------5s--7----------7s--|--9------------L--9s--|
--3----------3s--5----------5s--|--7------------L--7s--|
--------------------------------|----------------------|


   H.           E   E       H.           E  E    
------------------------|-----------------------|
------------------------|-----------------------|
--12------------L--12s--|--14------------L--4s--|
--12------------L--12s--|--14------------L--4s--|
--10------------L--10s--|--12------------L--2s--|
------------------------|-----------------------|


  3        3     3        3                             
  H        S E   H        S E      H.           E  E    
--------------------------------|----------------------|
--------------------------------|----------------------|
--5----------5s--7----------7s--|--9------------L--9s--|
--5----------5s--7----------7s--|--9------------L--9s--|
--3----------3s--5----------5s--|--7------------L--7s--|
--------------------------------|----------------------|


   H.           E   E       H.           E  E    
------------------------|-----------------------|
------------------------|-----------------------|
--12------------L--12s--|--14------------L--4s--|
--12------------L--12s--|--14------------L--4s--|
--10------------L--10s--|--12------------L--2s--|
------------------------|-----------------------|


  3        3     3        3                             
  H        S E   H        S E      H.           E  E    
--------------------------------|----------------------|
--------------------------------|----------------------|
--5----------5s--7----------7s--|--9------------L--9s--|
--5----------5s--7----------7s--|--9------------L--9s--|
--3----------3s--5----------5s--|--7------------L--7s--|
--------------------------------|----------------------|


   H.           E   E       H.           E  E    
------------------------|-----------------------|
------------------------|-----------------------|
--12------------L--12s--|--14------------L--4s--|
--12------------L--12s--|--14------------L--4s--|
--10------------L--10s--|--12------------L--2s--|
------------------------|-----------------------|


  3        3     3        3     
  H        S E   H        S E   
-------------------------------|
-------------------------------|
--5----------5s--7-------------|
--5----------5s--7-------------|
--3----------3s--5-------------|
-------------------------------|


   Outro                                                   
   |----3----|    |----3---|    |----3---|    |---3---|    
   E     E   E    E    E   E    E    E   E    E    E  E    
----------------------------------------------------------|
----------------------------------------------------------|
--18p---16--14h--16p--14--12h--14p--12--11h--12p--11--9h--|
----------------------------------------------------------|
----------------------------------------------------------|
----------------------------------------------------------|


   |---3--|   |---3--|   |---3--|  |--3--|   
   E   E  E   E   E  E   E   E  E  E  E  E   
--------------------------------------------|
--------------------------------------------|
--11p--9--7h--9p--7--6h--7p--6-----6--------|
--------------------------------9-----9--7--|
--------------------------------------------|
--------------------------------------------|


   |----3---|          |----3---|           
   E    E   E    Q     E    E   E    Q      
--12----L--12----L----14----L--14----L----||
--15b---L--15b---L----17b---L--17b---L----||
------------------------------------------||
------------------------------------------||
------------------------------------------||
------------------------------------------||




Guitar #2:

Adrian Smith

          Intro                                                     
     S    W                   W                   W                 
E||----|-------------------|-------------------|-------------------|
B||----|-------------------|-------------------|-------------------|
G||----|-------------------|-------------------|-------------------|
D||----|-------------------|-------------------|-------------------|
A||----|-------------------|-------------------|-------------------|
E||----|-------------------|-------------------|-------------------|


  Bass Riff                                                                     
  W                   W                   W                   W                 
-------------------|-------------------|-------------------|-------------------|
-------------------|-------------------|-------------------|-------------------|
-------------------|-------------------|-------------------|-------------------|
-------------------|-------------------|-------------------|-------------------|
-------------------|-------------------|-------------------|-------------------|
-------------------|-------------------|-------------------|-------------------|


  W                   W                   W                   W                 
-------------------|-------------------|-------------------|-------------------|
-------------------|-------------------|-------------------|-------------------|
-------------------|-------------------|-------------------|-------------------|
-------------------|-------------------|-------------------|-------------------|
-------------------|-------------------|-------------------|-------------------|
-------------------|-------------------|-------------------|-------------------|


                        Riff A                                     
  H        Q.     E     W                   Q.      Q.      E  E   
---------------------|-------------------|------------------------|
---------------------|-------------------|------------------------|
------------------9--|--9----------------|--L------12------11--9--|
------------------9--|--9----------------|--L------12------11--9--|
------------------7--|--7----------------|--L------10-------9--7--|
---------------------|-------------------|------------------------|


  H.           E  E     Q.     E  Q.     E     W                 
---------------------|----------------------|-------------------|
---------------------|----------------------|-------------------|
--9------------L--x--|--5------x--7------x--|--9----------------|
--9------------L--x--|--5------x--7------x--|--9----------------|
--7------------L--x--|--3------x--5------x--|--7----------------|
---------------------|----------------------|-------------------|


  Q.      Q.      E  E     H.           E  E     Q.     E  Q.     E   
------------------------|---------------------|----------------------|
------------------------|---------------------|----------------------|
--L------12------11--9--|--9------------L--x--|--5------x--7------x--|
--L------12------11--9--|--9------------L--x--|--5------x--7------x--|
--L------10-------9--7--|--7------------L--x--|--3------x--5------x--|
------------------------|---------------------|----------------------|


  Verso Riff                                                        
             |--3--|       |--3--|          |--3--|       |--3--|   
  Q          E  E  E  Q    E  E  E     Q    E  E  E  Q    E  E  E   
------------------------------------|------------------------------|
------------------------------------|------------------------------|
--9----------x--x--x--9----x--x--x--|--5----x--x--x--7----x--x--x--|
--9----------x--x--x--9----x--x--x--|--5----x--x--x--7----x--x--x--|
--7----------x--x--x--7----x--x--x--|--3----x--x--x--5----x--x--x--|
------------------------------------|------------------------------|


       |--3--|       |--3--|          |--3--|       |--3--|   
  Q    E  E  E  Q    E  E  E     Q    E  E  E  Q    E  E  E   
------------------------------|------------------------------|
------------------------------|------------------------------|
--9----x--x--x--9----x--x--x--|------------------------------|
--9----x--x--x--9----x--x--x--|--5----x--x--x--7----x--x--x--|
--7----x--x--x--7----x--x--x--|--5----x--x--x--7----x--x--x--|
------------------------------|--3----x--x--x--5----x--x--x--|


       |--3--|       |--3--|          |--3--|       |--3--|   
  Q    E  E  E  Q    E  E  E     Q    E  E  E  Q    E  E  E   
------------------------------|------------------------------|
------------------------------|------------------------------|
--9----x--x--x--9----x--x--x--|--5----x--x--x--7----x--x--x--|
--9----x--x--x--9----x--x--x--|--5----x--x--x--7----x--x--x--|
--7----x--x--x--7----x--x--x--|--3----x--x--x--5----x--x--x--|
------------------------------|------------------------------|


       |--3--|       |--3--|          |--3--|       |--3--|   
  Q    E  E  E  Q    E  E  E     Q    E  E  E  Q    E  E  E   
------------------------------|------------------------------|
------------------------------|------------------------------|
--9----x--x--x--9----x--x--x--|------------------------------|
--9----x--x--x--9----x--x--x--|--5----x--x--x--7----x--x--x--|
--7----x--x--x--7----x--x--x--|--5----x--x--x--7----x--x--x--|
------------------------------|--3----x--x--x--5----x--x--x--|


  Coro A                                                              
  H.            E   E     Q.     Q.     E  E     Q    E  Q.     Q     
-----------------------|----------------------|----------------------|
-----------------------|----------------------|----------------------|
--9-------------L--12--|--L------9------7--9--|--L----7--9------7----|
--9-------------L--12--|--L------9------7--9--|--L----7--9------7----|
--7-------------L--10--|--L------7------5--7--|--L----5--7------5----|
-----------------------|----------------------|----------------------|


       |--3--|       |--3--|                                                  
  Q    E  E  E  Q    E  E  E     H.            E   E     Q.     Q.     E  E   
------------------------------|-----------------------|----------------------|
------------------------------|-----------------------|----------------------|
--5----x--x--x--7----x--x--x--|--9-------------L--12--|--L------9------7--9--|
--5----x--x--x--7----x--x--x--|--9-------------L--12--|--L------9------7--9--|
--3----x--x--x--5----x--x--x--|--7-------------L--10--|--L------7------5--7--|
------------------------------|-----------------------|----------------------|


                              |--3--|       |--3--|   
  Q    E  Q.     Q       Q    E  E  E  Q    E  E  E   
----------------------|------------------------------|
----------------------|------------------------------|
--L----7--9------7----|--5----x--x--x--7----x--x--x--|
--L----7--9------7----|--5----x--x--x--7----x--x--x--|
--L----5--7------5----|--3----x--x--x--5----x--x--x--|
----------------------|------------------------------|


  Verso Riff                                                        
             |--3--|       |--3--|          |--3--|       |--3--|   
  Q          E  E  E  Q    E  E  E     Q    E  E  E  Q    E  E  E   
------------------------------------|------------------------------|
------------------------------------|------------------------------|
--9----------x--x--x--9----x--x--x--|--5----x--x--x--7----x--x--x--|
--9----------x--x--x--9----x--x--x--|--5----x--x--x--7----x--x--x--|
--7----------x--x--x--7----x--x--x--|--3----x--x--x--5----x--x--x--|
------------------------------------|------------------------------|


       |--3--|       |--3--|          |--3--|       |--3--|   
  Q    E  E  E  Q    E  E  E     Q    E  E  E  Q    E  E  E   
------------------------------|------------------------------|
------------------------------|------------------------------|
--9----x--x--x--9----x--x--x--|------------------------------|
--9----x--x--x--9----x--x--x--|--5----x--x--x--7----x--x--x--|
--7----x--x--x--7----x--x--x--|--5----x--x--x--7----x--x--x--|
------------------------------|--3----x--x--x--5----x--x--x--|


       |--3--|       |--3--|          |--3--|       |--3--|   
  Q    E  E  E  Q    E  E  E     Q    E  E  E  Q    E  E  E   
------------------------------|------------------------------|
------------------------------|------------------------------|
--9----x--x--x--9----x--x--x--|--5----x--x--x--7----x--x--x--|
--9----x--x--x--9----x--x--x--|--5----x--x--x--7----x--x--x--|
--7----x--x--x--7----x--x--x--|--3----x--x--x--5----x--x--x--|
------------------------------|------------------------------|


       |--3--|       |--3--|          |--3--|       |--3--|   
  Q    E  E  E  Q    E  E  E     Q    E  E  E  Q    E  E  E   
------------------------------|------------------------------|
------------------------------|------------------------------|
--9----x--x--x--9----x--x--x--|------------------------------|
--9----x--x--x--9----x--x--x--|--5----x--x--x--7----x--x--x--|
--7----x--x--x--7----x--x--x--|--5----x--x--x--7----x--x--x--|
------------------------------|--3----x--x--x--5----x--x--x--|


  Coro A                                                              
  H.            E   E     Q.     Q.     E  E     Q    E  Q.     Q     
-----------------------|----------------------|----------------------|
-----------------------|----------------------|----------------------|
--9-------------L--12--|--L------9------7--9--|--L----7--9------7----|
--9-------------L--12--|--L------9------7--9--|--L----7--9------7----|
--7-------------L--10--|--L------7------5--7--|--L----5--7------5----|
-----------------------|----------------------|----------------------|


       |--3--|       |--3--|                                                  
  Q    E  E  E  Q    E  E  E     H.            E   E     Q.     Q.     E  E   
------------------------------|-----------------------|----------------------|
------------------------------|-----------------------|----------------------|
--5----x--x--x--7----x--x--x--|--9-------------L--12--|--L------9------7--9--|
--5----x--x--x--7----x--x--x--|--9-------------L--12--|--L------9------7--9--|
--3----x--x--x--5----x--x--x--|--7-------------L--10--|--L------7------5--7--|
------------------------------|-----------------------|----------------------|


                              |--3--|       |--3--|   
  Q    E  Q.     Q       Q    E  E  E  Q    E  E  E   
----------------------|------------------------------|
----------------------|------------------------------|
--L----7--9------7----|--5----x--x--x--7----x--x--x--|
--L----7--9------7----|--5----x--x--x--7----x--x--x--|
--L----5--7------5----|--3----x--x--x--5----x--x--x--|
----------------------|------------------------------|


   Interludio                                              
   |-------3------|    |---3---|    |---3--|   |---3--|    
   E          E   E    E    E  E    E   E  E   E   E  E    
----------------------------------------------------------|
----------------------------------------------------------|
--14p--------12--11h--12p--11--9h--11p--9--7h--9p--7--6h--|
----------------------------------------------------------|
----------------------------------------------------------|
----------------------------------------------------------|


  |---3--|   |---3--|   |---3--|        
  E   E  E   E   E  E   E   E  E  Q     
---------------------------------------|
---------------------------------------|
--7p--6--4h--6p--4--2h--4p--2----------|
-------------------------------5--4----|
---------------------------------------|
---------------------------------------|


   |----3---|    |---3---|    |---3--|   |---3--|    
   E    E   E    E    E  E    E   E  E   E   E  E    
----------------------------------------------------|
----------------------------------------------------|
--14p--12--11h--12p--11--9h--11p--9--7h--9p--7--6h--|
----------------------------------------------------|
----------------------------------------------------|
----------------------------------------------------|


  |---3--|   |---3--|   |---3--|        
  E   E  E   E   E  E   E   E  E  Q     
---------------------------------------|
---------------------------------------|
--7p--6--4h--6p--4--2h--4p--2----------|
-------------------------------5--4----|
---------------------------------------|
---------------------------------------|


   |----3---|    |---3---|    |---3--|   |---3--|    
   E    E   E    E    E  E    E   E  E   E   E  E    
--14p--12--10h--12p--10--9h--10p--9--7h--9p--7--5h--|
----------------------------------------------------|
----------------------------------------------------|
----------------------------------------------------|
----------------------------------------------------|
----------------------------------------------------|


  |---3--|   |---3--|   |---3--|        
  E   E  E   E   E  E   E   E  E  Q     
--7p--5--3h--5p--3--2h--3p--2--0-------|
----------------------------------3----|
---------------------------------------|
---------------------------------------|
---------------------------------------|
---------------------------------------|


   |----3---|    |---3---|    |---3--|   |---3--|    
   E    E   E    E    E  E    E   E  E   E   E  E    
--14p--12--10h--12p--10--9h--10p--9--7h--9p--7--5h--|
----------------------------------------------------|
----------------------------------------------------|
----------------------------------------------------|
----------------------------------------------------|
----------------------------------------------------|


  |---3--|   |---3--|   |---3--|          |---3---|       |---3---|        
  E   E  E   E   E  E   E   E  E  Q       E   E   E  Q    E   E   E  Q     
--7p--5--3h--5p--3--2h--3p--2--0-------|--3p--2p--0-------3p--2p--0-------|
----------------------------------3----|-------------3---------------3----|
---------------------------------------|----------------------------------|
---------------------------------------|----------------------------------|
---------------------------------------|----------------------------------|
---------------------------------------|----------------------------------|


  |---3---|  |---3---|  |---3---|        
  E   E   E  E   E   E  E   E   E  Q     
--3p--2p--0--3p--2p--0--3p--2p--0-------|
-----------------------------------3----|
----------------------------------------|
----------------------------------------|
----------------------------------------|
----------------------------------------|


    Riff B                                   
    |----3----|  |--3--|  |--3--|  |--3--|   
    E      E  E  E  E  E  E  E  E  E  E  E   
|-------------------------------------------|
|-------------------------------------------|
|*--x------L--x--x--L--x--x--L--x--x--L--x--|
|*--x------L--x--x--L--x--x--L--x--x--L--x--|
|---x------L--x--x--L--x--x--L--x--x--L--x--|
|---x------L--x--x--L--x--x--L--x--x--L--x--|


  |--3--|  |--3--|  |--3--|  |--3--|     |--3--|  |--3--|  |--3--|  |--3--|   
  E  E  E  E  E  E  E  E  E  E  E  E     E  E  E  E  E  E  E  E  E  E  E  E   
--------------------------------------|--------------------------------------|
--------------------------------------|--------------------------------------|
--x--L--x--x--L--x--x--L--x--x--L--x--|--x--L--x--x--L--x--x--L--x--x--L--x--|
--x--L--x--x--L--x--x--L--x--x--L--x--|--x--L--x--x--L--x--x--L--x--x--L--x--|
--x--L--x--x--L--x--x--L--x--x--L--x--|--x--L--x--x--L--x--x--L--x--x--L--x--|
--x--L--x--x--L--x--x--L--x--x--L--x--|--x--L--x--x--L--x--x--L--x--x--L--x--|


  |--3--|   |---3---|  |--3--|            
  E  E  E   E   E   E  E  E  E   Q      3x
----------------------------------------||
----------------------------------------||
--9--9--9-----------------------12\----*||
-----------12--12--12--9--9--9---------*||
----------------------------------------||
----------------------------------------||


  |--3--|  |--3--|  |--3--|  |--3--|     |--3--|  |--3--|  |--3--|  |--3--|   
  E  E  E  E  E  E  E  E  E  E  E  E     E  E  E  E  E  E  E  E  E  E  E  E   
--------------------------------------|--------------------------------------|
--------------------------------------|--------------------------------------|
--x--L--x--x--L--x--x--L--x--x--L--x--|--x--L--x--x--L--x--x--L--x--x--L--x--|
--x--L--x--x--L--x--x--L--x--x--L--x--|--x--L--x--x--L--x--x--L--x--x--L--x--|
--x--L--x--x--L--x--x--L--x--x--L--x--|--x--L--x--x--L--x--x--L--x--x--L--x--|
--x--L--x--x--L--x--x--L--x--x--L--x--|--x--L--x--x--L--x--x--L--x--x--L--x--|


  |--3--|  |--3--|  |--3--|  |--3--|     |--3--|  3  3             3   
  E  E  E  E  E  E  E  E  E  E  E  E     E  E  E  E  E  E.  S Q    E   
--------------------------------------|-------------------------------|
--------------------------------------|-------------------------------|
--x--L--x--x--L--x--x--L--x--x--L--x--|--x--L--x--x--L--5-----7-------|
--x--L--x--x--L--x--x--L--x--x--L--x--|--x--L--x--x--L--5-----7-------|
--x--L--x--x--L--x--x--L--x--x--L--x--|--x--L--x--x--L--3-----5-------|
--x--L--x--x--L--x--x--L--x--x--L--x--|--x--L--x--x--L----------------|


  Coro A                                                              
  H.            E   E     Q.     Q.     E  E     Q    E  Q.     Q     
-----------------------|----------------------|----------------------|
-----------------------|----------------------|----------------------|
--9-------------L--12--|--L------9------7--9--|--L----7--9------7----|
--9-------------L--12--|--L------9------7--9--|--L----7--9------7----|
--7-------------L--10--|--L------7------5--7--|--L----5--7------5----|
-----------------------|----------------------|----------------------|


       |--3--|       |--3--|                                                  
  Q    E  E  E  Q    E  E  E     H.            E   E     Q.     Q.     E  E   
------------------------------|-----------------------|----------------------|
------------------------------|-----------------------|----------------------|
--5----x--x--x--7----x--x--x--|--9-------------L--12--|--L------9------7--9--|
--5----x--x--x--7----x--x--x--|--9-------------L--12--|--L------9------7--9--|
--3----x--x--x--5----x--x--x--|--7-------------L--10--|--L------7------5--7--|
------------------------------|-----------------------|----------------------|


                              |--3--|       |--3--|   
  Q    E  Q.     Q       Q    E  E  E  Q    E  E  E   
----------------------|------------------------------|
----------------------|------------------------------|
--L----7--9------7----|--5----x--x--x--7----x--x--x--|
--L----7--9------7----|--5----x--x--x--7----x--x--x--|
--L----5--7------5----|--3----x--x--x--5----x--x--x--|
----------------------|------------------------------|


  Riff C                                                        
  |----3----|           3   |-3|    |--3--|           3   |-3|  
  E      E  E  H        E.  E  S    E  E  E  H        E.  E  S  
---------------------------------|-----------------------------|
---------------------------------|-----------------------------|
--9------L--9---------------7--L-|--9--L--9---------------7--L-|
--9------L--9---------------7--L-|--9--L--9---------------7--L-|
--7------L--7---------------5--L-|--7--L--7---------------5--L-|
---------------------------------|-----------------------------|


  |--3--|           3   |-3|    |------3------|  |------3------|   
  E  E  E  H        E.  E  S    E  E  Q    E  E  E  E  Q    E  E   
-----------------------------|------------------------------------|
-----------------------------|------------------------------------|
--9--L--9---------------4--L-|--5--L--5-------5--7--L--7-------7--|
--9--L--9---------------4--L-|--5--L--5-------5--7--L--7-------7--|
--7--L--7---------------2--L-|--3--L--3-------3--5--L--5-------5--|
-----------------------------|------------------------------------|


  |--3--|           3   |-3|    |--3--|           3   |-3|  
  E  E  E  H        E.  E  S    E  E  E  H        E.  E  S  
-----------------------------|-----------------------------|
-----------------------------|-----------------------------|
--9--L--9---------------7--L-|--9--L--9---------------7--L-|
--9--L--9---------------7--L-|--9--L--9---------------7--L-|
--7--L--7---------------5--L-|--7--L--7---------------5--L-|
-----------------------------|-----------------------------|


  |--3--|           3   |-3|    |------3------|  |------3------|   
  E  E  E  H        E.  E  S    E  E  Q    E  E  E  E  Q    E  E   
-----------------------------|------------------------------------|
-----------------------------|------------------------------------|
--9--L--9---------------4--L-|--5--L--5-------5--7--L--7-------7--|
--9--L--9---------------4--L-|--5--L--5-------5--7--L--7-------7--|
--7--L--7---------------2--L-|--3--L--3-------3--5--L--5-------5--|
-----------------------------|------------------------------------|


    Riff D                                    
    |----3----|  |--3--|   |---3--|  |--3-|   
    E      E  E  E  E  E   E   E  E  Q    E   
|--------------------------------------------|
|----------------------7h--8p--7-----7-------|
|*--9------L--9-------------------9-------7--|
|*--9------L--9---------------------------7--|
|---7------L--7---------------------------5--|
|--------------------------------------------|


  |--3--|  |--3--|   |---3--|  |--3-|     |--3--|  |--3--|   |---3--|  |--3-|   
  E  E  E  E  E  E   E   E  E  Q    E     E  E  E  E  E  E   E   E  E  Q    E   
---------------------------------------|---------------------------------------|
-----------------7h--8p--7-----7-------|-----------------7h--8p--7-----7-------|
--9--L--9-------------------9-------7--|--9--L--9-------------------9-------7--|
--9--L--9---------------------------7--|--9--L--9---------------------------7--|
--7--L--7---------------------------5--|--7--L--7---------------------------5--|
---------------------------------------|---------------------------------------|


  |------3------|  |------3------|       |------3------|  |------3------|   
  E  E  Q    E  E  E  E  Q    E  E       E  E  Q    E  E  E  E  Q    E  E   
-------------------------------------||------------------------------------|
-------------------------------------||------------------------------------|
--5--L--5-------5--7--L--7-------7--*||--5--L--5-------5--7--L--7-------7--|
--5--L--5-------5--7--L--7-------7--*||--5--L--5-------5--7--L--7-------7--|
--3--L--3-------3--5--L--5-------5---||--3--L--3-------3--5--L--5-------5--|
-------------------------------------||------------------------------------|


  Verso Riff                                                        
             |--3--|       |--3--|          |--3--|       |--3--|   
  Q          E  E  E  Q    E  E  E     Q    E  E  E  Q    E  E  E   
------------------------------------|------------------------------|
------------------------------------|------------------------------|
--9----------x--x--x--9----x--x--x--|--5----x--x--x--7----x--x--x--|
--9----------x--x--x--9----x--x--x--|--5----x--x--x--7----x--x--x--|
--7----------x--x--x--7----x--x--x--|--3----x--x--x--5----x--x--x--|
------------------------------------|------------------------------|


       |--3--|       |--3--|          |--3--|       |--3--|   
  Q    E  E  E  Q    E  E  E     Q    E  E  E  Q    E  E  E   
------------------------------|------------------------------|
------------------------------|------------------------------|
--9----x--x--x--9----x--x--x--|------------------------------|
--9----x--x--x--9----x--x--x--|--5----x--x--x--7----x--x--x--|
--7----x--x--x--7----x--x--x--|--5----x--x--x--7----x--x--x--|
------------------------------|--3----x--x--x--5----x--x--x--|


       |--3--|       |--3--|          |--3--|       |--3--|   
  Q    E  E  E  Q    E  E  E     Q    E  E  E  Q    E  E  E   
------------------------------|------------------------------|
------------------------------|------------------------------|
--9----x--x--x--9----x--x--x--|--5----x--x--x--7----x--x--x--|
--9----x--x--x--9----x--x--x--|--5----x--x--x--7----x--x--x--|
--7----x--x--x--7----x--x--x--|--3----x--x--x--5----x--x--x--|
------------------------------|------------------------------|


       |--3--|       |--3--|          |--3--|       |--3--|   
  Q    E  E  E  Q    E  E  E     Q    E  E  E  Q    E  E  E   
------------------------------|------------------------------|
------------------------------|------------------------------|
--9----x--x--x--9----x--x--x--|------------------------------|
--9----x--x--x--9----x--x--x--|--5----x--x--x--7----x--x--x--|
--7----x--x--x--7----x--x--x--|--5----x--x--x--7----x--x--x--|
------------------------------|--3----x--x--x--5----x--x--x--|


  Coro A                                                              
  H.            E   E     Q.     Q.     E  E     Q    E  Q.     Q     
-----------------------|----------------------|----------------------|
-----------------------|----------------------|----------------------|
--9-------------L--12--|--L------9------7--9--|--L----7--9------7----|
--9-------------L--12--|--L------9------7--9--|--L----7--9------7----|
--7-------------L--10--|--L------7------5--7--|--L----5--7------5----|
-----------------------|----------------------|----------------------|


       |--3--|       |--3--|                                                  
  Q    E  E  E  Q    E  E  E     H.            E   E     Q.     Q.     E  E   
------------------------------|-----------------------|----------------------|
------------------------------|-----------------------|----------------------|
--5----x--x--x--7----x--x--x--|--9-------------L--12--|--L------9------7--9--|
--5----x--x--x--7----x--x--x--|--9-------------L--12--|--L------9------7--9--|
--3----x--x--x--5----x--x--x--|--7-------------L--10--|--L------7------5--7--|
------------------------------|-----------------------|----------------------|


                                                        Coro B               
                              |--3--|       |--3--|                          
  Q    E  Q.     Q       Q    E  E  E  Q    E  E  E     H.           E  E    
----------------------|------------------------------|----------------------|
----------------------|------------------------------|----------------------|
--L----7--9------7----|--5----x--x--x--7----x--x--x--|----------------------|
--L----7--9------7----|--5----x--x--x--7----x--x--x--|--9------------L--9s--|
--L----5--7------5----|--3----x--x--x--5----x--x--x--|--7------------L--7s--|
----------------------|------------------------------|----------------------|


   H.           E   E       H.           E  E    
------------------------|-----------------------|
------------------------|-----------------------|
------------------------|-----------------------|
--12------------L--12s--|--14------------L--4s--|
--10------------L--10s--|--12------------L--2s--|
------------------------|-----------------------|


  3        3     3        3                             
  H        S E   H        S E      H.           E  E    
--------------------------------|----------------------|
--------------------------------|----------------------|
--------------------------------|----------------------|
--5----------5s--7----------7s--|--9------------L--9s--|
--3----------3s--5----------5s--|--7------------L--7s--|
--------------------------------|----------------------|


   H.           E   E       H.           E  E    
------------------------|-----------------------|
------------------------|-----------------------|
------------------------|-----------------------|
--12------------L--12s--|--14------------L--4s--|
--10------------L--10s--|--12------------L--2s--|
------------------------|-----------------------|


  3        3     3        3                             
  H        S E   H        S E      H.           E  E    
--------------------------------|----------------------|
--------------------------------|----------------------|
--------------------------------|----------------------|
--5----------5s--7----------7s--|--9------------L--9s--|
--3----------3s--5----------5s--|--7------------L--7s--|
--------------------------------|----------------------|


   H.           E   E       H.           E  E    
------------------------|-----------------------|
------------------------|-----------------------|
------------------------|-----------------------|
--12------------L--12s--|--14------------L--4s--|
--10------------L--10s--|--12------------L--2s--|
------------------------|-----------------------|


  3        3     3        3                             
  H        S E   H        S E      H.           E  E    
--------------------------------|----------------------|
--------------------------------|----------------------|
--------------------------------|----------------------|
--5----------5s--7----------7s--|--9------------L--9s--|
--3----------3s--5----------5s--|--7------------L--7s--|
--------------------------------|----------------------|


   H.           E   E       H.           E  E    
------------------------|-----------------------|
------------------------|-----------------------|
------------------------|-----------------------|
--12------------L--12s--|--14------------L--4s--|
--10------------L--10s--|--12------------L--2s--|
------------------------|-----------------------|


  3        3     3        3     
  H        S E   H        S E   
-------------------------------|
-------------------------------|
-------------------------------|
--5----------5s--7-------------|
--3----------3s--5-------------|
-------------------------------|


   Outro                                              
   |----3----|    |---3---|    |---3--|   |---3--|    
   E     E   E    E    E  E    E   E  E   E   E  E    
-----------------------------------------------------|
-----------------------------------------------------|
--14p---12--11h--12p--11--9h--11p--9--7h--9p--7--6h--|
-----------------------------------------------------|
-----------------------------------------------------|
-----------------------------------------------------|


  |---3--|   |---3--|   |---3--|  |--3--|   
  E   E  E   E   E  E   E   E  E  E  E  E   
-------------------------------------------|
-------------------------------------------|
--7p--6--4h--6p--4--2h--4p--2-----2--------|
-------------------------------5-----5--4--|
-------------------------------------------|
-------------------------------------------|


   |----3---|          |----3---|           
   E    E   E    Q     E    E   E    Q      
------------------------------------------||
---9----L---9----L----11----L--11----L----||
--11b---L--11b---L----13b---L--13b---L----||
------------------------------------------||
------------------------------------------||
------------------------------------------||




Guitar #3:
                               
Janick Gers

          Intro                                                     
     S    W                   W                   W                 
E||----|-------------------|-------------------|-------------------|
B||----|-------------------|-------------------|-------------------|
G||----|-------------------|-------------------|-------------------|
D||----|-------------------|-------------------|-------------------|
A||----|-------------------|-------------------|-------------------|
E||----|-------------------|-------------------|-------------------|


  Bass Riff                                                                     
  W                   W                   W                   W                 
-------------------|-------------------|-------------------|-------------------|
-------------------|-------------------|-------------------|-------------------|
-------------------|-------------------|-------------------|-------------------|
-------------------|-------------------|-------------------|-------------------|
-------------------|-------------------|-------------------|-------------------|
-------------------|-------------------|-------------------|-------------------|


  W                   W                   W                   W                 
-------------------|-------------------|-------------------|-------------------|
-------------------|-------------------|-------------------|-------------------|
-------------------|-------------------|-------------------|-------------------|
-------------------|-------------------|-------------------|-------------------|
-------------------|-------------------|-------------------|-------------------|
-------------------|-------------------|-------------------|-------------------|


                        Riff A                                    
  H        Q.     E     W                   Q.      Q.      Q     
---------------------|-------------------|-----------------------|
---------------------|-------------------|-----------------------|
------------------9--|--9----------------|--L------12------11----|
------------------9--|--9----------------|--L------12------11----|
------------------7--|--7----------------|--L------10-------9----|
---------------------|-------------------|-----------------------|


                      |--3--|       |--3--|                            
  W                   E  E  E  Q    E  E  E  Q       W                 
-------------------|------------------------------|-------------------|
-------------------|------------------------------|-------------------|
--9----------------|--x--x--x--5----x--x--x--7----|--9----------------|
--9----------------|--x--x--x--5----x--x--x--7----|--9----------------|
--7----------------|--x--x--x--3----x--x--x--5----|--7----------------|
-------------------|------------------------------|-------------------|


                                              |--3--|       |--3--|        
  Q.      Q.      Q       W                   E  E  E  Q    E  E  E  Q     
-----------------------|-------------------|------------------------------|
-----------------------|-------------------|------------------------------|
--L------12------11----|--9----------------|--x--x--x--5----x--x--x--7----|
--L------12------11----|--9----------------|--x--x--x--5----x--x--x--7----|
--L------10-------9----|--7----------------|--x--x--x--3----x--x--x--5----|
-----------------------|-------------------|------------------------------|


  Verso Riff                                                        
             |--3--|       |--3--|          |--3--|       |--3--|   
  Q          E  E  E  Q    E  E  E     Q    E  E  E  Q    E  E  E   
------------------------------------|------------------------------|
------------------------------------|------------------------------|
--9----------x--x--x--9----x--x--x--|--5----x--x--x--7----x--x--x--|
--9----------x--x--x--9----x--x--x--|--5----x--x--x--7----x--x--x--|
--7----------x--x--x--7----x--x--x--|--3----x--x--x--5----x--x--x--|
------------------------------------|------------------------------|


       |--3--|       |--3--|          |--3--|       |--3--|   
  Q    E  E  E  Q    E  E  E     Q    E  E  E  Q    E  E  E   
------------------------------|------------------------------|
------------------------------|------------------------------|
--9----x--x--x--9----x--x--x--|------------------------------|
--9----x--x--x--9----x--x--x--|--5----x--x--x--7----x--x--x--|
--7----x--x--x--7----x--x--x--|--5----x--x--x--7----x--x--x--|
------------------------------|--3----x--x--x--5----x--x--x--|


       |--3--|       |--3--|          |--3--|       |--3--|   
  Q    E  E  E  Q    E  E  E     Q    E  E  E  Q    E  E  E   
------------------------------|------------------------------|
------------------------------|------------------------------|
--9----x--x--x--9----x--x--x--|--5----x--x--x--7----x--x--x--|
--9----x--x--x--9----x--x--x--|--5----x--x--x--7----x--x--x--|
--7----x--x--x--7----x--x--x--|--3----x--x--x--5----x--x--x--|
------------------------------|------------------------------|


       |--3--|       |--3--|          |--3--|       |--3--|   
  Q    E  E  E  Q    E  E  E     Q    E  E  E  Q    E  E  E   
------------------------------|------------------------------|
------------------------------|------------------------------|
--9----x--x--x--9----x--x--x--|------------------------------|
--9----x--x--x--9----x--x--x--|--5----x--x--x--7----x--x--x--|
--7----x--x--x--7----x--x--x--|--5----x--x--x--7----x--x--x--|
------------------------------|--3----x--x--x--5----x--x--x--|


  Coro A                                                                  
                                                                |--3--|   
  H.            E   E     Q.     Q.     E  E     Q    E  Q.     E  E  E   
-----------------------|----------------------|--------------------------|
-----------------------|----------------------|--------------------------|
--9-------------L--12--|--L------9------7--9--|--L----7--9------x--x--x--|
--9-------------L--12--|--L------9------7--9--|--L----7--9------x--x--x--|
--7-------------L--10--|--L------7------5--7--|--L----5--7------x--x--x--|
-----------------------|----------------------|--------------------------|


       |--3--|       |--3--|                                                  
  Q    E  E  E  Q    E  E  E     H.            E   E     Q.     Q.     E  E   
------------------------------|-----------------------|----------------------|
------------------------------|-----------------------|----------------------|
--5----x--x--x--7----x--x--x--|--9-------------L--12--|--L------9------7--9--|
--5----x--x--x--7----x--x--x--|--9-------------L--12--|--L------9------7--9--|
--3----x--x--x--5----x--x--x--|--7-------------L--10--|--L------7------5--7--|
------------------------------|-----------------------|----------------------|


                 |--3--|          |--3--|       |--3--|   
  Q    E  Q.     E  E  E     Q    E  E  E  Q    E  E  E   
--------------------------|------------------------------|
--------------------------|------------------------------|
--L----7--9------x--x--x--|--5----x--x--x--7----x--x--x--|
--L----7--9------x--x--x--|--5----x--x--x--7----x--x--x--|
--L----5--7------x--x--x--|--3----x--x--x--5----x--x--x--|
--------------------------|------------------------------|


  Verso Riff                                                        
             |--3--|       |--3--|          |--3--|       |--3--|   
  Q          E  E  E  Q    E  E  E     Q    E  E  E  Q    E  E  E   
------------------------------------|------------------------------|
------------------------------------|------------------------------|
--9----------x--x--x--9----x--x--x--|--5----x--x--x--7----x--x--x--|
--9----------x--x--x--9----x--x--x--|--5----x--x--x--7----x--x--x--|
--7----------x--x--x--7----x--x--x--|--3----x--x--x--5----x--x--x--|
------------------------------------|------------------------------|


       |--3--|       |--3--|          |--3--|       |--3--|   
  Q    E  E  E  Q    E  E  E     Q    E  E  E  Q    E  E  E   
------------------------------|------------------------------|
------------------------------|------------------------------|
--9----x--x--x--9----x--x--x--|------------------------------|
--9----x--x--x--9----x--x--x--|--5----x--x--x--7----x--x--x--|
--7----x--x--x--7----x--x--x--|--5----x--x--x--7----x--x--x--|
------------------------------|--3----x--x--x--5----x--x--x--|


       |--3--|       |--3--|          |--3--|       |--3--|   
  Q    E  E  E  Q    E  E  E     Q    E  E  E  Q    E  E  E   
------------------------------|------------------------------|
------------------------------|------------------------------|
--9----x--x--x--9----x--x--x--|--5----x--x--x--7----x--x--x--|
--9----x--x--x--9----x--x--x--|--5----x--x--x--7----x--x--x--|
--7----x--x--x--7----x--x--x--|--3----x--x--x--5----x--x--x--|
------------------------------|------------------------------|


       |--3--|       |--3--|          |--3--|       |--3--|   
  Q    E  E  E  Q    E  E  E     Q    E  E  E  Q    E  E  E   
------------------------------|------------------------------|
------------------------------|------------------------------|
--9----x--x--x--9----x--x--x--|------------------------------|
--9----x--x--x--9----x--x--x--|--5----x--x--x--7----x--x--x--|
--7----x--x--x--7----x--x--x--|--5----x--x--x--7----x--x--x--|
------------------------------|--3----x--x--x--5----x--x--x--|


  Coro A                                                                  
                                                                |--3--|   
  H.            E   E     Q.     Q.     E  E     Q    E  Q.     E  E  E   
-----------------------|----------------------|--------------------------|
-----------------------|----------------------|--------------------------|
--9-------------L--12--|--L------9------7--9--|--L----7--9------x--x--x--|
--9-------------L--12--|--L------9------7--9--|--L----7--9------x--x--x--|
--7-------------L--10--|--L------7------5--7--|--L----5--7------x--x--x--|
-----------------------|----------------------|--------------------------|


       |--3--|       |--3--|                                                  
  Q    E  E  E  Q    E  E  E     H.            E   E     Q.     Q.     E  E   
------------------------------|-----------------------|----------------------|
------------------------------|-----------------------|----------------------|
--5----x--x--x--7----x--x--x--|--9-------------L--12--|--L------9------7--9--|
--5----x--x--x--7----x--x--x--|--9-------------L--12--|--L------9------7--9--|
--3----x--x--x--5----x--x--x--|--7-------------L--10--|--L------7------5--7--|
------------------------------|-----------------------|----------------------|


                 |--3--|          |--3--|       |--3--|   
  Q    E  Q.     E  E  E     Q    E  E  E  Q    E  E  E   
--------------------------|------------------------------|
--------------------------|------------------------------|
--L----7--9------x--x--x--|--5----x--x--x--7----x--x--x--|
--L----7--9------x--x--x--|--5----x--x--x--7----x--x--x--|
--L----5--7------x--x--x--|--3----x--x--x--5----x--x--x--|
--------------------------|------------------------------|


   Interludio                                              
   |-------3------|    |---3---|    |---3--|   |---3--|    
   E          E   E    E    E  E    E   E  E   E   E  E    
----------------------------------------------------------|
----------------------------------------------------------|
--14p--------12--11h--12p--11--9h--11p--9--7h--9p--7--6h--|
----------------------------------------------------------|
----------------------------------------------------------|
----------------------------------------------------------|


  |---3--|   |---3--|   |---3--|        
  E   E  E   E   E  E   E   E  E  Q     
---------------------------------------|
---------------------------------------|
--7p--6--4h--6p--4--2h--4p--2----------|
-------------------------------5--4----|
---------------------------------------|
---------------------------------------|


   |----3---|    |---3---|    |---3--|   |---3--|    
   E    E   E    E    E  E    E   E  E   E   E  E    
----------------------------------------------------|
----------------------------------------------------|
--14p--12--11h--12p--11--9h--11p--9--7h--9p--7--6h--|
----------------------------------------------------|
----------------------------------------------------|
----------------------------------------------------|


  |---3--|   |---3--|   |---3--|        
  E   E  E   E   E  E   E   E  E  Q     
---------------------------------------|
---------------------------------------|
--7p--6--4h--6p--4--2h--4p--2----------|
-------------------------------5--4----|
---------------------------------------|
---------------------------------------|


   |----3---|    |---3---|    |---3--|   |---3--|    
   E    E   E    E    E  E    E   E  E   E   E  E    
--14p--12--10h--12p--10--9h--10p--9--7h--9p--7--5h--|
----------------------------------------------------|
----------------------------------------------------|
----------------------------------------------------|
----------------------------------------------------|
----------------------------------------------------|


  |---3--|   |---3--|   |---3--|        
  E   E  E   E   E  E   E   E  E  Q     
--7p--5--3h--5p--3--2h--3p--2--0-------|
----------------------------------3----|
---------------------------------------|
---------------------------------------|
---------------------------------------|
---------------------------------------|


   |----3---|    |---3---|    |---3--|   |---3--|    
   E    E   E    E    E  E    E   E  E   E   E  E    
--14p--12--10h--12p--10--9h--10p--9--7h--9p--7--5h--|
----------------------------------------------------|
----------------------------------------------------|
----------------------------------------------------|
----------------------------------------------------|
----------------------------------------------------|


  |---3--|   |---3--|   |---3--|          |---3---|       |---3---|        
  E   E  E   E   E  E   E   E  E  Q       E   E   E  Q    E   E   E  Q     
--7p--5--3h--5p--3--2h--3p--2--0-------|--3p--2p--0-------3p--2p--0-------|
----------------------------------3----|-------------3---------------3----|
---------------------------------------|----------------------------------|
---------------------------------------|----------------------------------|
---------------------------------------|----------------------------------|
---------------------------------------|----------------------------------|


  |---3---|  |---3---|  |---3---|        
  E   E   E  E   E   E  E   E   E  Q     
--3p--2p--0--3p--2p--0--3p--2p--0-------|
-----------------------------------3----|
----------------------------------------|
----------------------------------------|
----------------------------------------|
----------------------------------------|


    Riff B                                   
    |----3----|  |--3--|  |--3--|  |--3--|   
    E      E  E  E  E  E  E  E  E  E  E  E   
|-------------------------------------------|
|-------------------------------------------|
|*--x------L--x--x--L--x--x--L--x--x--L--x--|
|*--x------L--x--x--L--x--x--L--x--x--L--x--|
|---x------L--x--x--L--x--x--L--x--x--L--x--|
|---x------L--x--x--L--x--x--L--x--x--L--x--|


  |--3--|  |--3--|  |--3--|  |--3--|     |--3--|  |--3--|  |--3--|  |--3--|   
  E  E  E  E  E  E  E  E  E  E  E  E     E  E  E  E  E  E  E  E  E  E  E  E   
--------------------------------------|--------------------------------------|
--------------------------------------|--------------------------------------|
--x--L--x--x--L--x--x--L--x--x--L--x--|--x--L--x--x--L--x--x--L--x--x--L--x--|
--x--L--x--x--L--x--x--L--x--x--L--x--|--x--L--x--x--L--x--x--L--x--x--L--x--|
--x--L--x--x--L--x--x--L--x--x--L--x--|--x--L--x--x--L--x--x--L--x--x--L--x--|
--x--L--x--x--L--x--x--L--x--x--L--x--|--x--L--x--x--L--x--x--L--x--x--L--x--|


  |--3--|  |--3--|  |--3--|  |--3--|       |--3--|  |--3--|  |--3--|  |--3--|   
  E  E  E  E  E  E  E  E  E  E  E  E   3x  E  E  E  E  E  E  E  E  E  E  E  E   
---------------------------------------||--------------------------------------|
---------------------------------------||--------------------------------------|
--x--L--x--x--L--x--x--L--x--x--L--x--*||--x--L--x--x--L--x--x--L--x--x--L--x--|
--x--L--x--x--L--x--x--L--x--x--L--x--*||--x--L--x--x--L--x--x--L--x--x--L--x--|
--x--L--x--x--L--x--x--L--x--x--L--x---||--x--L--x--x--L--x--x--L--x--x--L--x--|
--x--L--x--x--L--x--x--L--x--x--L--x---||--x--L--x--x--L--x--x--L--x--x--L--x--|


  |--3--|  |--3--|  |--3--|  |--3--|     |--3--|  |--3--|  |--3--|  |--3--|   
  E  E  E  E  E  E  E  E  E  E  E  E     E  E  E  E  E  E  E  E  E  E  E  E   
--------------------------------------|--------------------------------------|
--------------------------------------|--------------------------------------|
--x--L--x--x--L--x--x--L--x--x--L--x--|--x--L--x--x--L--x--x--L--x--x--L--x--|
--x--L--x--x--L--x--x--L--x--x--L--x--|--x--L--x--x--L--x--x--L--x--x--L--x--|
--x--L--x--x--L--x--x--L--x--x--L--x--|--x--L--x--x--L--x--x--L--x--x--L--x--|
--x--L--x--x--L--x--x--L--x--x--L--x--|--x--L--x--x--L--x--x--L--x--x--L--x--|


                                  Coro A                                       
  |--3--|  3  3             3                                                  
  E  E  E  E  E  E.  S Q    E     H.            E   E     Q.     Q.     E  E   
-------------------------------|-----------------------|----------------------|
-------------------------------|-----------------------|----------------------|
--x--L--x--x--L--5-----7-------|--9-------------L--12--|--L------9------7--9--|
--x--L--x--x--L--5-----7-------|--9-------------L--12--|--L------9------7--9--|
--x--L--x--x--L--3-----5-------|--7-------------L--10--|--L------7------5--7--|
--x--L--x--x--L----------------|-----------------------|----------------------|


                 |--3--|          |--3--|       |--3--|   
  Q    E  Q.     E  E  E     Q    E  E  E  Q    E  E  E   
--------------------------|------------------------------|
--------------------------|------------------------------|
--L----7--9------x--x--x--|--5----x--x--x--7----x--x--x--|
--L----7--9------x--x--x--|--5----x--x--x--7----x--x--x--|
--L----5--7------x--x--x--|--3----x--x--x--5----x--x--x--|
--------------------------|------------------------------|


                                                                |--3--|   
  H.            E   E     Q.     Q.     E  E     Q    E  Q.     E  E  E   
-----------------------|----------------------|--------------------------|
-----------------------|----------------------|--------------------------|
--9-------------L--12--|--L------9------7--9--|--L----7--9------x--x--x--|
--9-------------L--12--|--L------9------7--9--|--L----7--9------x--x--x--|
--7-------------L--10--|--L------7------5--7--|--L----5--7------x--x--x--|
-----------------------|----------------------|--------------------------|


                                 Riff C                          
       |--3--|       |--3--|     |----3----|           3   |-3|  
  Q    E  E  E  Q    E  E  E     E      E  E  H        E.  E  S  
------------------------------|---------------------------------|
------------------------------|---------------------------------|
--5----x--x--x--7----x--x--x--|--9------L--9---------------7--L-|
--5----x--x--x--7----x--x--x--|--9------L--9---------------7--L-|
--3----x--x--x--5----x--x--x--|--7------L--7---------------5--L-|
------------------------------|---------------------------------|


  |--3--|           3   |-3|    |--3--|           3   |-3|  
  E  E  E  H        E.  E  S    E  E  E  H        E.  E  S  
-----------------------------|-----------------------------|
-----------------------------|-----------------------------|
--9--L--9---------------7--L-|--9--L--9---------------4--L-|
--9--L--9---------------7--L-|--9--L--9---------------4--L-|
--7--L--7---------------5--L-|--7--L--7---------------2--L-|
-----------------------------|-----------------------------|


  |------3------|  |------3------|     |--3--|           3   |-3|  
  E  E  Q    E  E  E  E  Q    E  E     E  E  E  H        E.  E  S  
------------------------------------|-----------------------------|
------------------------------------|-----------------------------|
--5--L--5-------5--7--L--7-------7--|--9--L--9---------------7--L-|
--5--L--5-------5--7--L--7-------7--|--9--L--9---------------7--L-|
--3--L--3-------3--5--L--5-------5--|--7--L--7---------------5--L-|
------------------------------------|-----------------------------|


  |--3--|           3   |-3|    |--3--|           3   |-3|  
  E  E  E  H        E.  E  S    E  E  E  H        E.  E  S  
-----------------------------|-----------------------------|
-----------------------------|-----------------------------|
--9--L--9---------------7--L-|--9--L--9---------------4--L-|
--9--L--9---------------7--L-|--9--L--9---------------4--L-|
--7--L--7---------------5--L-|--7--L--7---------------2--L-|
-----------------------------|-----------------------------|


  |------3------|  |------3------|   
  E  E  Q    E  E  E  E  Q    E  E   
------------------------------------|
------------------------------------|
--5--L--5-------5--7--L--7-------7--|
--5--L--5-------5--7--L--7-------7--|
--3--L--3-------3--5--L--5-------5--|
------------------------------------|


    Riff D                                    
    |----3----|  |--3--|   |---3--|  |--3-|   
    E      E  E  E  E  E   E   E  E  Q    E   
|--------------------------------------------|
|----------------------7h--8p--7-----7-------|
|*--9------L--9-------------------9-------7--|
|*--9------L--9---------------------------7--|
|---7------L--7---------------------------5--|
|--------------------------------------------|


  |--3--|  |--3--|   |---3--|  |--3-|     |--3--|  |--3--|   |---3--|  |--3-|   
  E  E  E  E  E  E   E   E  E  Q    E     E  E  E  E  E  E   E   E  E  Q    E   
---------------------------------------|---------------------------------------|
-----------------7h--8p--7-----7-------|-----------------7h--8p--7-----7-------|
--9--L--9-------------------9-------7--|--9--L--9-------------------9-------7--|
--9--L--9---------------------------7--|--9--L--9---------------------------7--|
--7--L--7---------------------------5--|--7--L--7---------------------------5--|
---------------------------------------|---------------------------------------|


  |------3------|  |------3------|       |------3------|  |------3------|   
  E  E  Q    E  E  E  E  Q    E  E       E  E  Q    E  E  E  E  Q    E  E   
-------------------------------------||------------------------------------|
-------------------------------------||------------------------------------|
--5--L--5-------5--7--L--7-------7--*||--5--L--5-------5--7--L--7-------7--|
--5--L--5-------5--7--L--7-------7--*||--5--L--5-------5--7--L--7-------7--|
--3--L--3-------3--5--L--5-------5---||--3--L--3-------3--5--L--5-------5--|
-------------------------------------||------------------------------------|


  Verso Riff                                                        
             |--3--|       |--3--|          |--3--|       |--3--|   
  Q          E  E  E  Q    E  E  E     Q    E  E  E  Q    E  E  E   
------------------------------------|------------------------------|
------------------------------------|------------------------------|
--9----------x--x--x--9----x--x--x--|--5----x--x--x--7----x--x--x--|
--9----------x--x--x--9----x--x--x--|--5----x--x--x--7----x--x--x--|
--7----------x--x--x--7----x--x--x--|--3----x--x--x--5----x--x--x--|
------------------------------------|------------------------------|


       |--3--|       |--3--|          |--3--|       |--3--|   
  Q    E  E  E  Q    E  E  E     Q    E  E  E  Q    E  E  E   
------------------------------|------------------------------|
------------------------------|------------------------------|
--9----x--x--x--9----x--x--x--|------------------------------|
--9----x--x--x--9----x--x--x--|--5----x--x--x--7----x--x--x--|
--7----x--x--x--7----x--x--x--|--5----x--x--x--7----x--x--x--|
------------------------------|--3----x--x--x--5----x--x--x--|


       |--3--|       |--3--|          |--3--|       |--3--|   
  Q    E  E  E  Q    E  E  E     Q    E  E  E  Q    E  E  E   
------------------------------|------------------------------|
------------------------------|------------------------------|
--9----x--x--x--9----x--x--x--|--5----x--x--x--7----x--x--x--|
--9----x--x--x--9----x--x--x--|--5----x--x--x--7----x--x--x--|
--7----x--x--x--7----x--x--x--|--3----x--x--x--5----x--x--x--|
------------------------------|------------------------------|


       |--3--|       |--3--|          |--3--|       |--3--|   
  Q    E  E  E  Q    E  E  E     Q    E  E  E  Q    E  E  E   
------------------------------|------------------------------|
------------------------------|------------------------------|
--9----x--x--x--9----x--x--x--|------------------------------|
--9----x--x--x--9----x--x--x--|--5----x--x--x--7----x--x--x--|
--7----x--x--x--7----x--x--x--|--5----x--x--x--7----x--x--x--|
------------------------------|--3----x--x--x--5----x--x--x--|


  Coro A                                                                  
                                                                |--3--|   
  H.            E   E     Q.     Q.     E  E     Q    E  Q.     E  E  E   
-----------------------|----------------------|--------------------------|
-----------------------|----------------------|--------------------------|
--9-------------L--12--|--L------9------7--9--|--L----7--9------x--x--x--|
--9-------------L--12--|--L------9------7--9--|--L----7--9------x--x--x--|
--7-------------L--10--|--L------7------5--7--|--L----5--7------x--x--x--|
-----------------------|----------------------|--------------------------|


       |--3--|       |--3--|                                                  
  Q    E  E  E  Q    E  E  E     H.            E   E     Q.     Q.     E  E   
------------------------------|-----------------------|----------------------|
------------------------------|-----------------------|----------------------|
--5----x--x--x--7----x--x--x--|--9-------------L--12--|--L------9------7--9--|
--5----x--x--x--7----x--x--x--|--9-------------L--12--|--L------9------7--9--|
--3----x--x--x--5----x--x--x--|--7-------------L--10--|--L------7------5--7--|
------------------------------|-----------------------|----------------------|


                 |--3--|          |--3--|       |--3--|   
  Q    E  Q.     E  E  E     Q    E  E  E  Q    E  E  E   
--------------------------|------------------------------|
--------------------------|------------------------------|
--L----7--9------x--x--x--|--5----x--x--x--7----x--x--x--|
--L----7--9------x--x--x--|--5----x--x--x--7----x--x--x--|
--L----5--7------x--x--x--|--3----x--x--x--5----x--x--x--|
--------------------------|------------------------------|


  Coro B                                                                
  H.           E  E       H.           E   E       H.           E  E    
----------------------|------------------------|-----------------------|
----------------------|------------------------|-----------------------|
----------------------|------------------------|-----------------------|
--9------------L--9s--|--12------------L--12s--|--14------------L--4s--|
--7------------L--7s--|--10------------L--10s--|--12------------L--2s--|
----------------------|------------------------|-----------------------|


  3        3     3        3                             
  H        S E   H        S E      H.           E  E    
--------------------------------|----------------------|
--------------------------------|----------------------|
--------------------------------|----------------------|
--5----------5s--7----------7s--|--9------------L--9s--|
--3----------3s--5----------5s--|--7------------L--7s--|
--------------------------------|----------------------|


   H.           E   E       H.           E  E    
------------------------|-----------------------|
------------------------|-----------------------|
------------------------|-----------------------|
--12------------L--12s--|--14------------L--4s--|
--10------------L--10s--|--12------------L--2s--|
------------------------|-----------------------|


  3        3     3        3                             
  H        S E   H        S E      H.           E  E    
--------------------------------|----------------------|
--------------------------------|----------------------|
--------------------------------|----------------------|
--5----------5s--7----------7s--|--9------------L--9s--|
--3----------3s--5----------5s--|--7------------L--7s--|
--------------------------------|----------------------|


   H.           E   E       H.           E  E    
------------------------|-----------------------|
------------------------|-----------------------|
------------------------|-----------------------|
--12------------L--12s--|--14------------L--4s--|
--10------------L--10s--|--12------------L--2s--|
------------------------|-----------------------|


  3        3     3        3                             
  H        S E   H        S E      H.           E  E    
--------------------------------|----------------------|
--------------------------------|----------------------|
--------------------------------|----------------------|
--5----------5s--7----------7s--|--9------------L--9s--|
--3----------3s--5----------5s--|--7------------L--7s--|
--------------------------------|----------------------|


   H.           E   E       H.           E  E    
------------------------|-----------------------|
------------------------|-----------------------|
------------------------|-----------------------|
--12------------L--12s--|--14------------L--4s--|
--10------------L--10s--|--12------------L--2s--|
------------------------|-----------------------|


  3        3     3        3     
  H        S E   H        S E   
-------------------------------|
-------------------------------|
-------------------------------|
--5----------5s--7-------------|
--3----------3s--5-------------|
-------------------------------|


   Outro                                              
   |----3----|    |---3---|    |---3--|   |---3--|    
   E     E   E    E    E  E    E   E  E   E   E  E    
-----------------------------------------------------|
-----------------------------------------------------|
--14p---12--11h--12p--11--9h--11p--9--7h--9p--7--6h--|
-----------------------------------------------------|
-----------------------------------------------------|
-----------------------------------------------------|


  |---3--|   |---3--|   |---3--|  |--3--|     |--3--|        |---3---|          
  E   E  E   E   E  E   E   E  E  E  E  E     E  E  E  Q     E   E   E   Q      
-------------------------------------------|----------------------------------||
-------------------------------------------|----------------------------------||
--7p--6--4h--6p--4--2h--4p--2-----2--------|--9--L--9--L----12---L--12---L----||
-------------------------------5-----5--4--|--9--L--9--L----12---L--12---L----||
-------------------------------------------|--7--L--7--L----10---L--10---L----||
-------------------------------------------|----------------------------------||




- Voice Melody:
                                
Bruce Dickinson

                      Verso Riff                                          
                      Just       six  teen,  a     pick up   truck,       
  W                   Q          Q    Q.     E     E    Q    Q.     Q     
-------------------|--0----------0----0---------|--0----0----3-----------|
-------------------|-------------------------0--|------------------------|
-------------------|----------------------------|------------------------|
-------------------|----------------------------|------------------------|
-------------------|----------------------------|------------------------|
-------------------|----------------------------|------------------------|


  out of   mo ney,         out of   luck.     I've    got  no   where    to  
  E   Q    E  Q    Q       E   Q    Q.     E  E       Q    Q    Q     E  E   
--7---5----5--3---------|--5---0----0--------------|--0----0----0-----------|
------------------------|---------------------0----|---------------------0--|
------------------------|--------------------------|------------------------|
------------------------|--------------------------|------------------------|
------------------------|--------------------------|------------------------|
------------------------|--------------------------|------------------------|


  call my   own,           hit the  gas, and  here       I    go.           
  E    Q    Q.     Q       E   Q    Q    Q    E       E  Q    E   H         
--0----0----3-----------|--7---7----7----5----3----|--L--5----3---L--------|
------------------------|--------------------------|-----------------------|
------------------------|--------------------------|-----------------------|
------------------------|--------------------------|-----------------------|
------------------------|--------------------------|-----------------------|
------------------------|--------------------------|-----------------------|


  Coro A                                             
         I'm  run ning free           ye  ah,        
  Q      Q    E   Q    E       Q.     E   Q    Q     
---------3----3---3----7----|--L------3s--2---------|
----------------------------|-----------------------|
----------------------------|-----------------------|
----------------------------|-----------------------|
----------------------------|-----------------------|
----------------------------|-----------------------|


       I'm  run ning free.                              I'm  run ning free  
  Q    Q    E   Q    E        H        H           Q    Q    E   Q    E     
-------3----3---2----0-----|--L-----------------|-------3----3---3----7----|
---------------------------|--------------------|--------------------------|
---------------------------|--------------------|--------------------------|
---------------------------|--------------------|--------------------------|
---------------------------|--------------------|--------------------------|
---------------------------|--------------------|--------------------------|


         ye  ah,             Oh I'm  run ning free.                       
  Q.     E   Q    Q       E  E  Q    E   Q    E        H        H         
--L------3s--2---------|-----0--3----3---2----0-----|--L-----------------|
-----------------------|----------------------------|--------------------|
-----------------------|----------------------------|--------------------|
-----------------------|----------------------------|--------------------|
-----------------------|----------------------------|--------------------|
-----------------------|----------------------------|--------------------|


  Verso Riff                                            
  Spent      the  night in an    L. A.   jail,     and  
  Q          Q    Q     E  E     E  Q    Q.     E  E    
--0----------0----0-----------|--0--0----3---------0---|
------------------------0--0--|------------------------|
------------------------------|------------------------|
------------------------------|------------------------|
------------------------------|------------------------|
------------------------------|------------------------|


  list ened to        the    si rens wail.          They   ain't got       a   
  E    Q    Q.     E  E      E  Q    Q.     Q       S    S Q     Q.     E  E   
--7----5----5---------3---|--5--0----0-----------|--0----L-0-----0------------|
--------------------------|----------------------|-------------------------0--|
--------------------------|----------------------|----------------------------|
--------------------------|----------------------|----------------------------|
--------------------------|----------------------|----------------------------|
--------------------------|----------------------|----------------------------|


  thing on   me,            I'm run ning wild,  I'm    run ning free.           
  E     Q    Q.     Q       E   E   Q    Q.     E      E   Q    E     H         
--0-----0----3-----------|--0---7---7----7------3---|--5---3----3-----L--------|
-------------------------|--------------------------|--------------------------|
-------------------------|--------------------------|--------------------------|
-------------------------|--------------------------|--------------------------|
-------------------------|--------------------------|--------------------------|
-------------------------|--------------------------|--------------------------|


  Coro A                                             
         I'm  run ning free           ye  ah,        
  Q      Q    E   Q    E       Q.     E   Q    Q     
---------3----3---3----7----|--L------3s--2---------|
----------------------------|-----------------------|
----------------------------|-----------------------|
----------------------------|-----------------------|
----------------------------|-----------------------|
----------------------------|-----------------------|


       I'm  run ning free.                              I'm  run ning free  
  Q    Q    E   Q    E        H        H           Q    Q    E   Q    E     
-------3----3---2----0-----|--L-----------------|-------3----3---3----7----|
---------------------------|--------------------|--------------------------|
---------------------------|--------------------|--------------------------|
---------------------------|--------------------|--------------------------|
---------------------------|--------------------|--------------------------|
---------------------------|--------------------|--------------------------|


         ye  ah,             Oh I'm  run ning free.                Get out my  
  Q.     E   Q    Q       E  E  Q    E   Q    E        H        E  E   E   E   
--L------3s--2---------|-----0--3----3---2----0-----|--L-----------3---3---3--|
-----------------------|----------------------------|-------------------------|
-----------------------|----------------------------|-------------------------|
-----------------------|----------------------------|-------------------------|
-----------------------|----------------------------|-------------------------|
-----------------------|----------------------------|-------------------------|


  Interludio                                                    
  way...             way...            way...         way       
  Q          E.  T T Q      E.  T T    Q      E.  T T H         
--3----------L-------3------L-------|--3------L-------3--------|
------------------------------------|--------------------------|
------------------------------------|--------------------------|
------------------------------------|--------------------------|
------------------------------------|--------------------------|
------------------------------------|--------------------------|


                                          Coro A                     
                                                 I'm  run ning free  
  W                   W                   Q      Q    E   Q    E     
-------------------|-------------------|---------3----3---3----7----|
-------------------|-------------------|----------------------------|
-------------------|-------------------|----------------------------|
-------------------|-------------------|----------------------------|
-------------------|-------------------|----------------------------|
-------------------|-------------------|----------------------------|


         ye  ah,               I'm  run ning free.                       
  Q.     E   Q    Q       Q    Q    E   Q    E        H        H         
--L------3s--2---------|-------3----3---2----0-----|--L-----------------|
-----------------------|---------------------------|--------------------|
-----------------------|---------------------------|--------------------|
-----------------------|---------------------------|--------------------|
-----------------------|---------------------------|--------------------|
-----------------------|---------------------------|--------------------|


       I'm  run ning free           ye  ah,             Oh I'm  run ning free.  
  Q    Q    E   Q    E       Q.     E   Q    Q       E  E  Q    E   Q    E      
-------3----3---3----7----|--L------3s--2---------|-----0--3----3---2----0-----|
--------------------------|-----------------------|----------------------------|
--------------------------|-----------------------|----------------------------|
--------------------------|-----------------------|----------------------------|
--------------------------|-----------------------|----------------------------|
--------------------------|-----------------------|----------------------------|


              Ri  ght...                                          
  H        E  E   Q         W                   W                 
--L-----------5s--0------|-------------------|-------------------|
-------------------------|-------------------|-------------------|
-------------------------|-------------------|-------------------|
-------------------------|-------------------|-------------------|
-------------------------|-------------------|-------------------|
-------------------------|-------------------|-------------------|


                      Verso Riff                                          
                      Pu         ller here at the    Bo ttle Top,         
  W                   Q          Q    Q    E  E      E  Q    Q.     Q     
-------------------|--0----------0----0-----------|--0--0----3-----------|
-------------------|-----------------------0--0---|----------------------|
-------------------|------------------------------|----------------------|
-------------------|------------------------------|----------------------|
-------------------|------------------------------|----------------------|
-------------------|------------------------------|----------------------|


  whis key, dan cing,         dis co   hop.      Now    all  the  boys    are  
  E    Q    E   Q     Q       E   Q    Q.     E  E      Q    Q    Q    E  E    
--7----5----5---3----------|--5---0----0-------------|--0----0----0-----------|
---------------------------|---------------------0---|--------------------0---|
---------------------------|-------------------------|------------------------|
---------------------------|-------------------------|------------------------|
---------------------------|-------------------------|------------------------|
---------------------------|-------------------------|------------------------|


  af ter  me,       and    that's   the  way  it's go       nna  be.           
  E  Q    Q.     E  E      S      S Q    Q    Q    E     E  Q    E   H         
--0--0----3---------0---|--7------L-7----7----5----3--|--L--5----3---L--------|
------------------------|-----------------------------|-----------------------|
------------------------|-----------------------------|-----------------------|
------------------------|-----------------------------|-----------------------|
------------------------|-----------------------------|-----------------------|
------------------------|-----------------------------|-----------------------|


  Coro A                                             
         I'm  run ning free           ye  ah,        
  Q      Q    E   Q    E       Q.     E   Q    Q     
---------3----3---3----7----|--L------3s--2---------|
----------------------------|-----------------------|
----------------------------|-----------------------|
----------------------------|-----------------------|
----------------------------|-----------------------|
----------------------------|-----------------------|


       I'm  run ning free.                              I'm  run ning free  
  Q    Q    E   Q    E        H        H           Q    Q    E   Q    E     
-------3----3---2----0-----|--L-----------------|-------3----3---3----7----|
---------------------------|--------------------|--------------------------|
---------------------------|--------------------|--------------------------|
---------------------------|--------------------|--------------------------|
---------------------------|--------------------|--------------------------|
---------------------------|--------------------|--------------------------|


         ye  ah,             Oh I'm  run ning free.            oo  oh...     
  Q.     E   Q    Q       E  E  Q    E   Q    E        Q    E  E   H         
--L------3s--2---------|-----0--3----3---2----0-----|--L-------5s--3--------|
-----------------------|----------------------------|-----------------------|
-----------------------|----------------------------|-----------------------|
-----------------------|----------------------------|-----------------------|
-----------------------|----------------------------|-----------------------|
-----------------------|----------------------------|-----------------------|


  Coro B                                                    
  W                   W                   W                 
-------------------|-------------------|-------------------|
-------------------|-------------------|-------------------|
-------------------|-------------------|-------------------|
-------------------|-------------------|-------------------|
-------------------|-------------------|-------------------|
-------------------|-------------------|-------------------|


                  I'm    run ning,             I'm    run ning             I'm  
  H        Q.     E      E   E     H        E  E      E   E    H        E  E    
----------------------|--0---0---------------------|--0---0--------------------|
------------------0---|------------------------0---|-----------------------0---|
----------------------|----------------------------|---------------------------|
----------------------|----------------------------|---------------------------|
----------------------|----------------------------|---------------------------|
----------------------|----------------------------|---------------------------|


  run ning,                 Uuh    yeeh yeah    I'm  
  E   E     H.              Q.     Q    E    E  E    
--0---0------------------|--3------0----0-----------|
-------------------------|----------------------0---|
-------------------------|--------------------------|
-------------------------|--------------------------|
-------------------------|--------------------------|
-------------------------|--------------------------|


  run ning,             I'm    run ning             I'm  
  E   E     H        E  E      E   E    H        E  E    
--0---0---------------------|--0---0--------------------|
------------------------0---|-----------------------0---|
----------------------------|---------------------------|
----------------------------|---------------------------|
----------------------------|---------------------------|
----------------------------|---------------------------|


  run ning,                             Uuh yeah I'm  
  E   E     H.              H        E  E   E    E    
--0---0------------------|--------------3---0--------|
-------------------------|-----------------------0---|
-------------------------|---------------------------|
-------------------------|---------------------------|
-------------------------|---------------------------|
-------------------------|---------------------------|


  run ning,             I'm    run ning             I'm  
  E   E     H        E  E      E   E    H        E  E    
--0---0---------------------|--0---0--------------------|
------------------------0---|-----------------------0---|
----------------------------|---------------------------|
----------------------------|---------------------------|
----------------------------|---------------------------|
----------------------------|---------------------------|


  run ning,                              Ye  ah                      
  E   E     H.              H.           E   E   
--0---0------------------|---------------3S--0--|
-------------------------|----------------------|
-------------------------|----------------------|
-------------------------|----------------------|
-------------------------|----------------------|
-------------------------|----------------------|



- Chorus:
                               
Coro: Adrian y Steve

  Coro A                                                                  
  Q      Q    E  Q    E     Q.     E   Q    Q       Q    Q    E  Q    E   
-------------------------|-----------------------|-----------------------|
---------5----5--5----8--|--L------5s--3---------|-------5----5--3----1--|
-------------------------|-----------------------|-----------------------|
-------------------------|-----------------------|-----------------------|
-------------------------|-----------------------|-----------------------|
-------------------------|-----------------------|-----------------------|


  H        H           Q    Q    E  Q    E     Q.     E   Q    Q     
--------------------|-----------------------|-----------------------|
--L-----------------|-------5----5--5----8--|--L------5s--3---------|
--------------------|-----------------------|-----------------------|
--------------------|-----------------------|-----------------------|
--------------------|-----------------------|-----------------------|
--------------------|-----------------------|-----------------------|


                                                Coro B                  
  E  E  Q    E  Q    E     Q    H.              Q      Q    E  Q    E   
------------------------|--------------------|---------3----3--3----7--|
-----3--5----5--3----1--|--L-----------------|---------5----5--5----8--|
------------------------|--------------------|-------------------------|
------------------------|--------------------|-------------------------|
------------------------|--------------------|-------------------------|
------------------------|--------------------|-------------------------|


  Q.     E   Q    Q       Q    Q    E  Q    E     H        H         
--L------3s--2---------|-------3----3--2----0--|--L-----------------|
--L------5s--3---------|-------5----5--3----1--|--L-----------------|
-----------------------|-----------------------|--------------------|
-----------------------|-----------------------|--------------------|
-----------------------|-----------------------|--------------------|
-----------------------|-----------------------|--------------------|


  Q    Q    E  Q    E     Q.     E   Q    Q       Q    Q    E  Q    E   
-------3----3--3----7--|--L------3s--2---------|-------3----3--2----0--|
-------5----5--5----8--|--L------5s--3---------|-------5----5--3----1--|
-----------------------|-----------------------|-----------------------|
-----------------------|-----------------------|-----------------------|
-----------------------|-----------------------|-----------------------|
-----------------------|-----------------------|-----------------------|


  H        H           Q    Q    E  Q    E     Q.     E   Q    Q     
--L-----------------|-------3----3--3----7--|--L------3s--2---------|
--L-----------------|-------5----5--5----8--|--L------5s--3---------|
--------------------|-----------------------|-----------------------|
--------------------|-----------------------|-----------------------|
--------------------|-----------------------|-----------------------|
--------------------|-----------------------|-----------------------|


  Q    Q    E  Q    E     H        H           Q    Q    E  Q    E   
-------3----3--2----0--|--L-----------------|-------3----3--3----7--|
-------5----5--3----1--|--L-----------------|-------5----5--5----8--|
-----------------------|--------------------|-----------------------|
-----------------------|--------------------|-----------------------|
-----------------------|--------------------|-----------------------|
-----------------------|--------------------|-----------------------|


  Q.     E   Q    Q       Q    Q    E  Q    E     H        H         
--L------3s--2---------|-------3----3--2----0--|--L-----------------|
--L------5s--3---------|-------5----5--3----1--|--L-----------------|
-----------------------|-----------------------|--------------------|
-----------------------|-----------------------|--------------------|
-----------------------|-----------------------|--------------------|
-----------------------|-----------------------|--------------------|




Duration Legend
---------------
W - whole
H - half
Q - quarter
E - 8th
S - 16th
T - 32nd
X - 64th
. - note dotted
|-n-|  - n-tuplets


Tablature Legend
----------------
L - tied note
x - dead note
g - grace note
(n) - ghost note
> - accentuded note
NH - natural harmonic
AH - artificial harmonic
TH - tapped harmonic
SH - semi harmonic
PH - pitch harmonic
h - hammer on
p - pull off
b - bend
br - bendRelease
pb - preBend
pbr - preBendRelease
brb - bendReleaseBend
\n/ - tremolo bar dip
\n - tremolo bar dive
-/n - tremolo bar Release up
/n\ - tremolo bar inverted dip
/n - tremolo bar return
-\n - tremolo bar Release down
S - shift slide
s - legato slide
/ -  slide into from below or out of upwards
\ -  slide into from above or out of downwards
~ - vibrato
W - wide vibrato
tr - trill
TP - tremolo picking
T - tapping
S - slap
P - pop
< - fade in
^ - brush up
v - brush down

            
            
Suggest correction
Creating personal tab
Creating personal tab
You can edit any tab online and save it as your Personal.

You can edit, replace or remove any tab part or add personal notes – all changes will be seen only by you.

Personal tabs can be accessed anytime from any device, even offline.
Learn more »
comments
print report bad tab
guest
You may want to rate the tab now too:
select rating
Wanna post a correction for this tab? Suggest correction