Oops, an error
Loading. Please wait.

Seventh Son Of A Seventh Son bass

version 1
version 1

Whole song

Interactive

8,811 views 9 this week
no commentswrite comment
1 2 3 4 5
x 7
add to favorites
×
Save as Personal and add changes to this tab that will be seen only by you. Learn more ›
×
You can save this tab as Personal to edit and correct it or add notes. All changes will be seen only by you. Learn more »
launch autoscroll
font size
0
reset
guitar tuner
backing track
0:00
0:00
edit
Autoscroll
slow
fast
+/-
esc
set tempo
stop
Author
Intro (2x)
 |--5-7-9--5-7-9--5-7-5-------------------|
 |--5-7-9--5-7-9--5-7-5-------------------|
 |--3-5-7--3-5-7--3-5-3--3-3-3-3-2-0---0--|
 |-----------------------------------3----|

 |--5-7-9-------------------5-7-9-------------------5-7-5-------------------|
 |--5-7-9-------------------5-7-9-------------------5-7-5-------------------|
 |--3-5-7--7-7-7-7-7-7-7-7--3-5-7--7-7-7-7-7-7-7-7--3-5-3--3-3-3-3-3-3-3-3--|
 |--------------------------------------------------------------------------|

 |-------------------------|
 |-------------------------|
 |--2-0---0-0-0-0-0-0-0-0--|
 |------3------------------|

 Verse
 |-----------------------------------------------------|
 |-----------------------------------------------------|
 |--7-7-7-7--7-7-7--7-7-7-7--7--7-7-7--7-7-7--7-7-7-7--|
 |-----------------------------------------------------|

 |-----------------------------------------------------|
 |-----------------------------------------------------|
 |--7-7-7-7--7-7-7--7-7-7-7--7--7-7-7--7-7-7--7-7-7-7--|
 |-----------------------------------------------------|

 |-----------------------------------------------------|
 |-----------------------------------------------------|
 |--7-7-7-7--7-7-7--7-7-7-7--7--7-7-7--7-7-7--7-7-7-7--|
 |-----------------------------------------------------|

 |-----------------------------------------------------|
 |-----------------------------------------------------|
 |--7-7-7-7--7-7-7--7-7-7-7--7--7-7-7--7-7-7--7-7-7-7--|
 |-----------------------------------------------------|

 |-----------------------------------------------------|
 |-----------------------------------------------------|
 |--7-7-7-7--7-7-7--7-7-7-7--7--7-7-7--7-7-7--7-7-7-7--|
 |-----------------------------------------------------|

 |--5-------------------------5-------------------------|
 |--5-------------------------5-------------------------|
 |--3--3-3-3--3-3-3--3-3-3-3--3--3-3-3--3-3-3--3-3-3-3--|
 |------------------------------------------------------|

 |--9-------------------------9-------------------------|
 |--9-------------------------9-------------------------|
 |--7--7-7-7--7-7-7--7-7-7-7--7--7-7-7--7-7-7--7-7-7-7--|
 |------------------------------------------------------|

 |--5-------------------------5-------------------------|
 |--5-------------------------5-------------------------|
 |--3--3-3-3--3-3-3--3-3-3-3--3--3-3-3--3-3-3--3-3-3-3--|
 |------------------------------------------------------|

 |--9-------------------------9-------------------------|
 |--9-------------------------9-------------------------|
 |--7--7-7-7--7-7-7--7-7-7-7--7--7-7-7--7-7-7--7-7-7-7--|
 |------------------------------------------------------|

 |-----------------------------------------------------|
 |-----------------------------------------------------|
 |--7-7-7-7--7-7-7--7-7-7-7--7--7-7-7--7-7-7--7-7-7-7--|
 |-----------------------------------------------------|

 |-----------------------------------------------------|
 |-----------------------------------------------------|
 |--7-7-7-7--7-7-7--7-7-7-7--7--7-7-7--7-7-7--7-7-7-7--|
 |-----------------------------------------------------|

 |-----------------------------------------------------|
 |-----------------------------------------------------|
 |--7-7-7-7--7-7-7--7-7-7-7--7--7-7-7--7-7-7--7-7-7-7--|
 |-----------------------------------------------------|

 |-----------------------------------------------------|
 |-----------------------------------------------------|
 |--7-7-7-7--7-7-7--7-7-7-7--7--7-7-7--7-7-7--7-7-7-7--|
 |-----------------------------------------------------|

 |--5-------------------------5-------------------------|
 |--5-------------------------5-------------------------|
 |--3--3-3-3--3-3-3--3-3-3-3--3--3-3-3--3-3-3--3-3-3-3--|
 |------------------------------------------------------|

 |--9-------------------------9-------------------------|
 |--9-------------------------9-------------------------|
 |--7--7-7-7--7-7-7--7-7-7-7--7--7-7-7--7-7-7--7-7-7-7--|
 |------------------------------------------------------|

 |--5-------------------------5-------------------------|
 |--5-------------------------5-------------------------|
 |--3--3-3-3--3-3-3--3-3-3-3--3--3-3-3--3-3-3--3-3-3-3--|
 |------------------------------------------------------|

 |--9-------------------------9-------------------------|
 |--9-------------------------9-------------------------|
 |--7--7-7-7--7-7-7--7-7-7-7--7--7-7-7--7-7-7--7-7-7-7--|
 |------------------------------------------------------|

 Chorus
 |-----------------------------------------------------------------|
 |-------------5--------------------5---7-5-4---------------5------|
 |--7-7-7--5-7---7--7--7-7-7-7--5-7---7-------7--7-7-7--5-7---7-7--|
 |-----------------------------------------------------------------|

 |------------------------|
 |---------------5-4------|
 |--7-7-7--5-7-3-----5-7--|
 |------------------------|

 |-----------------------------------------------------------------|
 |-------------5--------------------5---7-5-4---------------5------|
 |--7-7-7--5-7---7--7--7-7-7-7--5-7---7-------7--7-7-7--5-7---7-7--|
 |-----------------------------------------------------------------|

 |------------------------|
 |---------------5-4------|
 |--7-7-7--5-7-3-----5-7--|
 |------------------------|

 Verse
 |--9-----------------------------------------------------|
 |--9-----------------------------------------------------|
 |--7--7-7-7--7-7-7--7-7--7-7--7--7-7-7--7-7-7--7-7--7-7--|
 |--------------------------------------------------------|

 |--5----------------------------------------------------|
 |--5----------------------------------------------------|
 |--3--3-3-3--3-3-3--3-3--3-3--3-3-3-3--3-3-3--3-3--3-3--|
 |-------------------------------------------------------|

 |--7-----------------------------------------------------|
 |--7-----------------------------------------------------|
 |--5--5-5-5--5-5-5--5-5--5-5--5--5-5-5--5-5-5--5-5--5-5--|
 |--------------------------------------------------------|

 |--5-----------------------------------------------------|
 |--5-----------------------------------------------------|
 |--3--3-3-3--3-3-3--3-3--3-3--3--3-3-3--3-3-3--3-3--3-3--|
 |--------------------------------------------------------|


 Verse


 Chorus
 |-----------------------------------------------------------------|
 |-------------5--------------------5---7-5-4---------------5------|
 |--7-7-7--5-7---7--7--7-7-7-7--5-7---7-------7--7-7-7--5-7---7-7--|
 |-----------------------------------------------------------------|

 |------------------------|
 |---------------5-4------|
 |--7-7-7--5-7-3-----5-7--|
 |------------------------|

 |-----------------------------------------------------------------|
 |-------------5--------------------5---7-5-4---------------5------|
 |--7-7-7--5-7---7--7--7-7-7-7--5-7---7-------7--7-7-7--5-7---7-7--|
 |-----------------------------------------------------------------|

 |------------------------|
 |---------------5-4------|
 |--7-7-7--5-7-3-----5-7--|
 |------------------------|

 Verse
 |--9-----------------------------------------------------|
 |--9-----------------------------------------------------|
 |--7--7-7-7--7-7-7--7-7--7-7--7--7-7-7--7-7-7--7-7--7-7--|
 |--------------------------------------------------------|

 |--5----------------------------------------------------|
 |--5----------------------------------------------------|
 |--3--3-3-3--3-3-3--3-3--3-3--3-3-3-3--3-3-3--3-3--3-3--|
 |-------------------------------------------------------|

 |--7-----------------------------------------------------|
 |--7-----------------------------------------------------|
 |--5--5-5-5--5-5-5--5-5--5-5--5--5-5-5--5-5-5--5-5--5-5--|
 |--------------------------------------------------------|

 |--5-----------------------------------------------------|
 |--5-----------------------------------------------------|
 |--3--3-3-3--3-3-3--3-3--3-3--3--3-3-3--3-3-3--3-3--3-3--|
 |--------------------------------------------------------|

 Verse
 |----9----5----4----7--|----9----5----4----7--|
 |----9----5----4----7--|----9----5----4----7--|
 |--7-7--3-3--2-2--5-5--|--7-7--3-3--2-2--5-5--|
 |----------------------|----------------------|

 Narrative
 |-----14----16----16----16----16----16----16----16----16----16----16--|
 |--14----14----14----14----14----14----14----14----14----14----14-----|
 |---------------------------------------------------------------------|
 |---------------------------------------------------------------------|

 |-----16----16----14----14----16----17----17----17----17----17----17--|
 |--14----14----14----14----14----14----14----14----14----14----14-----|
 |---------------------------------------------------------------------|
 |---------------------------------------------------------------------|

 |-----17----17----17----17----17----17----17----14----14----16----16--|
 |--14----14----14----14----14----14----14----14----14----14----14-----|
 |---------------------------------------------------------------------|
 |---------------------------------------------------------------------|

 |-----16----16----16----16----16----16----16----16----16----16----16--|
 |--14----14----14----14----14----14----14----14----14----14----14-----|
 |---------------------------------------------------------------------|
 |---------------------------------------------------------------------|

 |-----16----14----14----16----17----17----17----17----17----17----17--|
 |--14----14----14----14----14----14----14----14----14----14----14-----|
 |---------------------------------------------------------------------|
 |---------------------------------------------------------------------|

 |-----17----17----10----12----12----12----12----12----12----12----12--|
 |--14----14----10----10----10----10----10----10----10----10----10-----|
 |---------------------------------------------------------------------|
 |---------------------------------------------------------------------|

 |-----12----12----12----12----12----12----12----12----13----13----10--|
 |--10----10----10----10----10----10----10----10----10----10----10-----|
 |---------------------------------------------------------------------|
 |---------------------------------------------------------------------|

 |-----13----10----13----10----13----10----13----10----13----10----10--|
 |--10----10----10----10----10----10----10----10----10----10----10-----|
 |---------------------------------------------------------------------|
 |---------------------------------------------------------------------|

 |-----10----12----12----12----12----12----12----12----12----12----12--|
 |--10----10----10----10----10----10----10----10----10----10----10-----|
 |---------------------------------------------------------------------|
 |---------------------------------------------------------------------|

 |-----12----12----12----12----10----10----12----13----13----13----13--|
 |--10----10----10----10----10----10----10----10----10----10----10-----|
 |---------------------------------------------------------------------|
 |---------------------------------------------------------------------|

 |-----13----13----13----13----13--|
 |--10----10----10----10----10-----|
 |---------------------------------|
 |---------------------------------|

  Solo
 |------9------9------5------9-------|
 |------9------9------5------9-------|
 |--5-5-7--5-5-7--5-5-3--5-5-7--5-5--|
 |-----------------------------------|

 |-----------------------------------------------------------------|
 |-----------------------------------------------------------------|
 |--9-9-9--9-9-9--9-9-9--9-9-9--10-10--7-7--9-9-9-9-9-9--9-9-------|
 |-----------------------------------------------------------9-9---|

 |-------------------|
 |-------------------|
 |--7-7--10-10--7-7--|
 |-------------------|

 |-----------------------------------------------------------------|
 |-----------------------------------------------------------------|
 |--9-9-9--9-9-9--9-9-9--9-9-9--10-10--7-7--9-9-9-9-9-9--9-9-------|
 |-----------------------------------------------------------9-9---|

 |-------------------|
 |-------------------|
 |--7-7--10-10--7-7--|
 |-------------------|

 |-----------------------------------------------------------------|
 |-----------------------------------------------------------------|
 |--9-9-9--9-9-9--9-9-9--9-9-9--10-10--7-7--9-9-9-9-9-9--9-9-------|
 |-----------------------------------------------------------9-9---|

 |-------------------|
 |-------------------|
 |--7-7--10-10--7-7--|
 |-------------------|

 |-----------------------------------------------------------------|
 |-----------------------------------------------------------------|
 |--9-9-9--9-9-9--9-9-9--9-9-9--10-10--7-7--9-9-9-9-9-9--9-9-------|
 |-----------------------------------------------------------9-9---|

 |-------------------|
 |-------------------|
 |--7-7--10-10--7-7--|
 |-------------------|

 |-------------------------------------------------------------|
 |--1-4---3-5-5-4-----4-4-4---3-5-5-4-----4-4-4---3-5-5-4------|
 |------4---------5-4-------4---------5-4-------4---------5-4--|
 |-------------------------------------------------------------|

 |-----------------------|
 |--4-4-4---5-5-4-----4--|
 |--------4-------5-4----|
 |-----------------------|

 |-----------------------------------------------------------------|
 |-----------------------------------------------------------------|
 |--9-9-9--9-9-9--9-9-9--9-9-9--10-10--7-7--9-9-9-9-9-9--9-9-------|
 |-----------------------------------------------------------9-9---|

 |-------------------|
 |-------------------|
 |--7-7--10-10--7-7--|
 |-------------------|

 |-----------------------------------------------------------------|
 |-----------------------------------------------------------------|
 |--9-9-9--9-9-9--9-9-9--9-9-9--10-10--7-7--9-9-9-9-9-9--9-9-------|
 |-----------------------------------------------------------9-9---|

 |-------------------|
 |-------------------|
 |--7-7--10-10--7-7--|
 |-------------------|

 |---------------------------------------------------------------------------|
 |--11--9------------------------9---------11-9------------------------------|
 |--------12-11-12--9-9-9--11-12---12-11-9------12-11-12--9-9-9--11-12-------|
 |---------------------------------------------------------------------9-12--|

 |---------------------------------------------------------------------------|
 |--11--9------------------------9---------11-9------------------------------|
 |--------12-11-12--9-9-9--11-12---12-11-9------12-11-12--9-9-9--11-12-------|
 |---------------------------------------------------------------------9-12--|

 |-----------------------------------------------------------------------------|
 |-----------------------------------------------------------------------------|
 |--4-4-4--4-4-4--4-4-4--4-4-4--5-5--2-2--4-4-4--4-4-4--4-4-----2-2--5-5--2-2--|
 |----------------------------------------------------------4-4----------------|

 |-----------------------------------------------------------------------------|
 |-----------------------------------------------------------------------------|
 |--4-4-4--4-4-4--4-4-4--4-4-4--5-5--2-2--4-4-4--4-4-4--4-4-----2-2--5-5--2-2--|
 |----------------------------------------------------------4-4----------------|

 |-----------------------------------------------------------------------------|
 |-----------------------------------------------------------------------------|
 |--4-4-4--4-4-4--4-4-4--4-4-4--5-5--2-2--4-4-4--4-4-4--4-4-----2-2--5-5--2-2--|
 |----------------------------------------------------------4-4----------------|

 |-----------------------------------------------------------------------------|
 |-----------------------------------------------------------------------------|
 |--4-4-4--4-4-4--4-4-4--4-4-4--5-5--2-2--4-4-4--4-4-4--4-4-----2-2--5-5--2-2--|
 |----------------------------------------------------------4-4----------------|

 |---------------------------------------------------------------------------|
 |--11--9------------------------9---------11-9------------------------------|
 |--------12-11-12--9-9-9--11-12---12-11-9------12-11-12--9-9-9--11-12-------|
 |---------------------------------------------------------------------9-12--|

 |---------------------------------------------------------------------------|
 |--11--9------------------------9---------11-9------------------------------|
 |--------12-11-12--9-9-9--11-12---12-11-9------12-11-12--9-9-9--11-12-------|
 |---------------------------------------------------------------------9-12--|

 |-----------------------------------------------------------------------------|
 |-----------------------------------------------------------------------------|
 |--4-4-4--4-4-4--4-4-4--4-4-4--5-5--2-2--4-4-4--4-4-4--4-4-----2-2--5-5--2-2--|
 |----------------------------------------------------------4-4----------------|

 |-----------------------------------------------------------------------------|
 |-----------------------------------------------------------------------------|
 |--4-4-4--4-4-4--4-4-4--4-4-4--5-5--2-2--4-4-4--4-4-4--4-4-----2-2--5-5--2-2--|
 |----------------------------------------------------------4-4----------------|

 |---------------------------------------------------------------------|
 |---------------------------------------------------------------------|
 |--10--9-9--9--9-9-9--9-9-9--9-9-9--10--9--7--5--7--7--9--10--9--9-9--|
 |---------------------------------------------------------------------|

 |------------------------------------------------------------------|
 |------------------------------------------------------------------|
 |--9-9-9--9-9-9--9-9-9--10--9-9-9--9-9-9--9-9-9--9-9-9--10--9------|
 |-------------------------------------------------------------9-9--|

 |----------------------------------------|
 |----------------------------------------|
 |--7--9--10--9-9-9--9-9-9--9-9-9--9-9-9--|
 |----------------------------------------|

 Verse
 |-------------------------------------------------------------------------|
 |-------------------------------7---7-------------------------------------|
 |--9-9-9-9--9-9-9-9--9-9-9-9--9---9---5-5-5-5--5-5-5-5--5-5-5-5--5-5-5-5--|
 |-------------------------------------------------------------------------|

 |---------------------------------------------------------------------------|
 |----------------------------------7----------------------------------------|
 |-----------------------------7--7---7--9-9-9-9--9-9-9-9--9-9-9-9--9-9-9-9--|
 |--7-7-7-7--7-7-7-7--7-7-7-7------------------------------------------------|

 |-------------------------------------------------------------------------|
 |-------------------------------7---7-------------------------------------|
 |--9-9-9-9--9-9-9-9--9-9-9-9--9---9---5-5-5-5--5-5-5-5--5-5-5-5--5-5-5-5--|
 |-------------------------------------------------------------------------|

 |---------------------------------------------------------------------------|
 |----------------------------------7----------------------------------------|
 |-----------------------------7--7---7--9-9-9-9--9-9-9-9--9-9-9-9--9-9-9-9--|
 |--7-7-7-7--7-7-7-7--7-7-7-7------------------------------------------------|

 |-------------------------------------------------------------------------------|
 |----------------------------7---0--6-------------------------------------------|
 |--9-9-9-9--9-9-9-9--9-9-9-9---9------7--5-5-5-5--5-5-5-5--5-5-5-5--5-5-5-5-----|
 |-------------------------------------------------------------------------------|

 |---------------------------------7---------------------------------------|
 |-----------------------------7-7---7-------------------------------------|
 |--7-7-7-7--7-7-7-7--7-7-7-7----------9-9-9-9--9-9-9-9--9-9-9-9--9-9-9-9--|
 |-------------------------------------------------------------------------|

 |-------------------------------------------------------------------------------|
 |----------------------------7---0--6-------------------------------------------|
 |--9-9-9-9--9-9-9-9--9-9-9-9---9------7--5-5-5-5--5-5-5-5--5-5-5-5--5-5-5-5-----|
 |-------------------------------------------------------------------------------|

 |---------------------------------7---------------------------------------|
 |-----------------------------7-7---7-------------------------------------|
 |--7-7-7-7--7-7-7-7--7-7-7-7----------9-9-9-9--9-9-9-9--9-9-9-9--9-9-9-9--|
 |-------------------------------------------------------------------------|

 |--------------------------------------------------------------------|
 |--11--11--11--12--12--12--9-9-9--11--11--11--7----------------------|
 |-----------------------------------------------7--5-5-5-5--5-5-5-5--|
 |--------------------------------------------------------------------|

 |------------------------------------------------------------------|
 |-------------------11--11--11--12--12--12--9-9-9--11--11--11---7--|
 |--5-5-5-5--5-5-5-5-------------------------------------------7----|
 |------------------------------------------------------------------|

 |-------------------------------------------------------------------|
 |-------------------------------------------------------------------|
 |--9-9-9-9--9-9-9-9--9-9-9-9--9-9-9-9--9-9-9-9-9--9-9-9-9-9--9-9-9--|
 |-------------------------------------------------------------------|

 |---------------------------|
 |---------------------------|
 |--9-9-9-9-9--9-9-9-9-9--9--|
 |---------------------------|

 |--------------------------------------------------------------------|
 |--11--11--11--12--12--12--9-9-9--11--11--11--7----------------------|
 |-----------------------------------------------7--5-5-5-5--5-5-5-5--|
 |--------------------------------------------------------------------|

 |------------------------------------------------------------------|
 |-------------------11--11--11--12--12--12--9-9-9--11--11--11---7--|
 |--5-5-5-5--5-5-5-5-------------------------------------------7----|
 |------------------------------------------------------------------|

 |-------------------------------------------------------------------|
 |-------------------------------------------------------------------|
 |--9-9-9-9--9-9-9-9--9-9-9-9--9-9-9-9--9-9-9-9-9--9-9-9-9-9--9-9-9--|
 |-------------------------------------------------------------------|

 |---------------------------|
 |---------------------------|
 |--9-9-9-9-9--9-9-9-9-9--9--|
 |---------------------------|

            
            
Suggest correction
Creating personal tab
Creating personal tab
You can edit any tab online and save it as your Personal.

You can edit, replace or remove any tab part or add personal notes – all changes will be seen only by you.

Personal tabs can be accessed anytime from any device, even offline.
Learn more »
comments
print report bad tab
guest
You may want to rate the tab now too:
select rating
Wanna post a correction for this tab? Suggest correction