Oops, an error
Loading. Please wait.

The Loneliness Of The Long Distance Runner bass

version 2
version 2

Whole song

Interactive

4,434 views 1 this week
2 commentsread comments
1 2 3 4 5
x 6
add to favorites
×
Save as Personal and add changes to this tab that will be seen only by you. Learn more ›
×
You can save this tab as Personal to edit and correct it or add notes. All changes will be seen only by you. Learn more »
launch autoscroll
font size
0
reset
guitar tuner
edit
Autoscroll
slow
fast
+/-
esc
set tempo
stop
Here's my contribution to the world, amazing Maiden tune.
WARNING: do not play if you can't stand good music, your right hand stamina isn't 
developed or if you like Britney Spears.

Intro:
G|----9----9----9----9-|----5----5----5----5-|----7----7----7----7-|
D|---------------------|---------------------|---------------------|
A|-7----7----7----7----|-3----3----3----3----|-5----5----5----5----|
E|---------------------|---------------------|---------------------|

G|----9----9----7----7-| 2x
D|---------------------|
A|-7----7----5----5----|
E|---------------------|

G|----12---12---12---12|----8----8----8----8-|----10---10---10---10|
D|---------------------|---------------------|---------------------|
A|-10---10---10---10---|-6----6----6----6----|-8----8----8----8----|
E|---------------------|---------------------|---------------------|

G|----9----9----10---10|2x
D|---------------------|
A|-10---10---8----8----|
E|---------------------|


G|----9----9----9----9-|----5----5----5----5-|----7----7----7----7-|
D|---------------------|---------------------|---------------------|
A|-7----7----7----7----|-3----3----3----3----|-5----5----5----5----|
E|---------------------|---------------------|---------------------|

G|----9----9----7----7-| 2x
D|---------------------|
A|-7----7----5----5----|
E|---------------------|

G|----12---12---12---12|----8----8----8----8-|----10---10---10---10|
D|---------------------|---------------------|---------------------|
A|-10---10---10---10---|-6----6----6----6----|-8----8----8----8----|
E|---------------------|---------------------|---------------------|

G|----9----9----10---10|2x
D|---------------------|
A|-10---10---8----8----|
E|---------------------|

Verse:
G|---------------------|---------------------|---------------------|
D|---------------------|---------------------|-----------------8---|
A|-5--555-555-555---7--|----555-555-555---8--|----555-555-555------|
E|---------------------|---------------------|---------------------|

G|---------------------|---------------------|---------------------|
D|--7-5---7--7---------|---------------------|---------------------|
A|------8--8---5-555---|-555-555---7---555---|-555-555---8---555---|
E|---------------------|---------------------|---------------------|

G|---------------------|---------------------|---------------------|
D|---------8--7-5---7--|--------5-7-8-7-5----|------------------9--|
A|-555-555--------8--8-|--5-7-8-----------7--|777-777-7-10-9-10--10|
E|---------------------|---------------------|---------------------|

G|---------------------|---------------------|---------------------|
D|---------------------|9--------------------|------11-------------|
A|-7-777-777-7-10-9-10-|--10-9-999-999-9-12--|11-12----12-9-999-999|
E|---------------------|---------------------|---------------------|

G|---------------------|2x
D|-----------11--------|
A|9-12-11-12----12-----|
E|---------------------|

Chorus:
G|---------------------|---------------------|---------------------|
D|---------------------|---------------------|---------------------|
A|-5-5-5-5-5-5-5-5-5-5-|-5-5-5-5-5-5-1-1-1-1-|-1-1-1-1-1-1-1-1-1-1-|
E|---------------------|---------------------|---------------------|

G|---------------------|---------------------|---------------------|
D|---------------------|---------------------|---------------------|
A|-1-1-3-3-3-3-3-3-3-3-|-3-3-3-3-3-3-3-3-----|---------------------|
E|---------------------|-----------------1-1-|-1-1-1-1-1-1-1-1-1-1-|

G|---------------------|---------------------|---------------------|
D|---------------------|---------------------|---------------------|
A|---------5-5-5-5-5-5-|-5-5-5-5-5-5-5-5-5-5-|-1-1-1-1-1-1-1-1-1-1-|
E|-1-1-1-1-------------|---------------------|---------------------|

G|---------------------|---------------------|---------------------|
D|---------------------|---------------------|---------------------|
A|-1-1-1-1-1-1-3-3-3-3-|-3-3-3-3-3-3-3-3-3-3-|-3-3-5-5-5-5-5-5-5-5-|
E|---------------------|---------------------|---------------------|

G|---------------------|
D|---------------------|
A|-5-5-5-5-5-5-5-5-----|
E|---------------------|

Bridge 1:

G|-------------------------|-------------------------|-------------------------|
D|-------------------------|-------------------------|-------------------------|
A|-5-5-5-5-5-5-5-5-5-5-5-5-|-5-5-5-5-5-5-5-5-5-5-5-5-|-5-5-5-5-5-5-5-5-3-3-3-3-|
E|-------------------------|-------------------------|-------------------------|

G|-------------------------|-------------------------|-------------------------|
D|-------------------------|-------------------------|-------------------------|
A|-3-3-3-3-3-3-3-3-3-3-3-3-|-3-3-3-3-3-3-3-3-3-3-3-3-|-3-3-3-3-5-5-5-5-5-5-5-5-|
E|-------------------------|-------------------------|-------------------------|

G|-------------------------|-------------------------|-------------------------|
D|-------------------------|-------------------------|-------------------------|
A|-5-5-5-5-5-5-5-5-5-5-5-5-|-5-5-5-5-5-5-5-5-5-5-5-5-|-3-3-3-3-3-3-3-3-3-3-3-3-|
E|-------------------------|-------------------------|-------------------------|

G|-------------------------|-----------------|
D|-------------------------|-----------------|
A|-3-3-3-3-3-3-3-3-3-3-3-3-|-3-3-3-3-3-3-3-3-|
E|-------------------------|-----------------|

(note that the third series of Bb's has a fifth note extra)
G|--------------------------|-------------------------|--------------------------|
D|--------------------------|-------------------------|--------------------------|
A|-1111-1111-11111-3-5-5-5-5|-5-5-5-5-5-5-5-5-5-5-5-5-|-1111-1111-11111-3-5-5-5-5|
E|--------------------------|-------------------------|--------------------------|

G|-------------------------|
D|-------------------------|
A|-5-5-5-5-5-5-5-5-5-5-5-5-|
E|-------------------------|

Bridge 2:
Putting accents together with the snare sounds better
G|-------------------------|-------------------------|-------------------------|
D|-------------------------|-------------------------|-------------------------|
A|-7-7-7-7-7-7-7-7-7-7-7-7-|-7-7-7-7-7-7-7-7-7-7-7-7-|-7-7-7-7-7-7-7-7-3-3-3-3-|
E|-------------------------|-------------------------|-------------------------|

G|-------------------------|-------------------------|-------------------------|
D|-------------------------|-------------------------|-------------------------|
A|-3-3-3-3-3-3-3-3-3-3-3-3-|-3-3-3-3-3-3-3-3-3-3-3-3-|-3-3-3-3-5-5-5-5-5-5-5-5-|
E|-------------------------|-------------------------|-------------------------|

G|-------------------------|-------------------------|-------------------------|
D|-------------------------|-------------------------|-------------------------|
A|-5-5-5-5-5-5-5-5-5-5-5-5-|-5-5-5-5-5-5-5-5-5-5-5-5-|-------------------------|
E|-------------------------|-------------------------|-5-5-5-5-5-5-5-5-5-5-5-5-|

G|-------------------------|-------------------------|
D|-------------------------|-------------------------|
A|---------3-3-3-3-3-3-3-3-|-3-3-3-3-3-3-5-5---------|
E|-5-5-5-5-----------------|-------------------------|

Vocals kick in and the tempo changes
G|-------------------------|-------------------------|-------------------------|
D|-------------------------|-------------------------|-------------------------|
A|-7-7-7-7-7-7-7-7-7-7-7-7-|-7-7-7-7-3-3-3-3-3-3-3-3-|-3-3-3-3-3-3-3-3-5-5-5-5-|
E|-------------------------|-------------------------|-------------------------|

G|-------------------------|-------------------------|-------------------------|
D|-------------------------|-------------------------|-------------------------|
A|-5-5-5-5-5-5-5-5-5-5-5-5-|-----------------3-3-3-3-|-3-3-5-5-7-7-7-7-7-7-7-7-|
E|-------------------------|-5-5-5-5-5-5-5-5---------|-------------------------|

G|-------------------------|-------------------------|-------------------------|
D|-------------------------|-------------------------|-------------------------|
A|-7-7-7-7-7-7-7-7-3-3-3-3-|-3-3-3-3-3-3-3-3-3-3-3-3-|-------------------------|
E|-------------------------|-------------------------|-5-5-5-5-5-5-5-5-5-5-5-5-|

G|-------------------------|-------------------------|
D|-------------------------|-------------------------|
A|---------3-3-3-3-3-3-3-3-|-5-5-5-5-5-5-5-5---------|
E|-5-5-5-5-----------------|-------------------------|

Victory Solo (let's just call it that):
(you could play the G on the 5 fret of the D string as well)
G|-------------------------|-----------------|-----------------|-----------------|
D|-------------------------|-----------------|-----------------|-----------------|
A|-10-10-10-10-10-10-10-10-|-5-5-5-5-5-5-5-5-|-7-7-7-7-7-7-7-7-|-3-3-3-3-3-3-3-3-|
E|-------------------------|-----------------|-----------------|-----------------|

G|-------------------------|-----------------|-----------------|-----------------|
D|-------------------------|-----------------|-----------------|-----------------|
A|-10-10-10-10-10-10-10-10-|-5-5-5-5-5-5-5-5-|-7-7-7-7-7-7-7-7-|-3-3-3-3-3-3-3-3-|
E|-------------------------|-----------------|-----------------|-----------------|

G|-------------------------|-----------------|-----------------|-----------------|
D|-------------------------|-----------------|-----------------|-----------------|
A|-10-10-10-10-10-10-10-10-|-5-5-5-5-5-5-5-5-|-7-7-7-7-7-7-7-7-|-3-3-3-3-3-3-3-3-|
E|-------------------------|-----------------|-----------------|-----------------|

G|-------------------------|-----------------|-----------------|-----------------|
D|-------------------------|-----------------|-----------------|-----------------|
A|-10-10-10-10-10-10-10-10-|-5-5-5-5-5-5-5-5-|-7-7-7-7-7-7-7-7-|-3-3-3-3-3-3-3-3-|
E|-------------------------|-----------------|-----------------|-----------------|

Other Solo:

G|-----------------|-----------------|-----------------|-----------------|
D|-7-7-7-7-7-7-7-7-|-3-3-3-3-3-3-3-3-|-----------------|-----------------|
A|-----------------|-----------------|-5-5-5-5-5-5-5-5-|-5-5-5-5-5-5-5-5-|
E|-----------------|-----------------|-----------------|-----------------|

G|-----------------|-----------------|-----------------|-----------------|
D|-7-7-7-7-7-7-7-7-|-3-3-3-3-3-3-3-3-|-----------------|-----------------|
A|-----------------|-----------------|-5-5-5-5-5-5-5-5-|-5-5-5-5-5-5-5-5-|
E|-----------------|-----------------|-----------------|-----------------|

G|-----------------|-----------------|-----------------|-----------------|
D|-7-7-7-7-7-7-7-7-|-3-3-3-3-3-3-3-3-|-----------------|-----------------|
A|-----------------|-----------------|-5-5-5-5-5-5-5-5-|-5-5-5-5-5-5-5-5-|
E|-----------------|-----------------|-----------------|-----------------|

G|-----------------|-----------------|-----------------|-----------------|
D|-7-7-7-7-7-7-7-7-|-3-3-3-3-3-3-3-3-|-5-5-5-5-5-5-5-5-|-5-5-5-5-5-5-5-5-|
A|-----------------|-----------------|-----------------|-----------------|
E|-----------------|-----------------|-----------------|-----------------|

G|-----------------|-----------------|
D|-5-5-5-5-5-5-5-5-|-5-5-5-5-5-5-5-5-|
A|-----------------|-----------------|
E|-----------------|-----------------|


Verse:
G|---------------------|---------------------|---------------------|
D|---------------------|---------------------|-----------------8---|
A|-5--555-555-555---7--|----555-555-555---8--|----555-555-555------|
E|---------------------|---------------------|---------------------|

G|---------------------|---------------------|---------------------|
D|--7-5---7--7---------|---------------------|---------------------|
A|------8--8---5-555---|-555-555---7---555---|-555-555---8---555---|
E|---------------------|---------------------|---------------------|

G|---------------------|---------------------|---------------------|
D|---------8--7-5---7--|--------5-7-8-7-5----|------------------9--|
A|-555-555--------8--8-|--5-7-8-----------7--|777-777-7-10-9-10--10|
E|---------------------|---------------------|---------------------|

G|---------------------|---------------------|---------------------|
D|---------------------|9--------------------|------11-------------|
A|-7-777-777-7-10-9-10-|--10-9-999-999-9-12--|11-12----12-9-999-999|
E|---------------------|---------------------|---------------------|

G|---------------------|
D|-----------11--------|
A|9-12-11-12----12-----|
E|---------------------|

Chorus:
G|---------------------|---------------------|---------------------|
D|---------------------|---------------------|---------------------|
A|-5-5-5-5-5-5-5-5-5-5-|-5-5-5-5-5-5-1-1-1-1-|-1-1-1-1-1-1-1-1-1-1-|
E|---------------------|---------------------|---------------------|

G|---------------------|---------------------|---------------------|
D|---------------------|---------------------|---------------------|
A|-1-1-3-3-3-3-3-3-3-3-|-3-3-3-3-3-3-3-3-----|---------------------|
E|---------------------|-----------------1-1-|-1-1-1-1-1-1-1-1-1-1-|

G|---------------------|---------------------|---------------------|
D|---------------------|---------------------|---------------------|
A|---------5-5-5-5-5-5-|-5-5-5-5-5-5-5-5-5-5-|-1-1-1-1-1-1-1-1-1-1-|
E|-1-1-1-1-------------|---------------------|---------------------|

G|---------------------|---------------------|---------------------|
D|---------------------|---------------------|---------------------|
A|-1-1-1-1-1-1-3-3-3-3-|-3-3-3-3-3-3-3-3-3-3-|-3-3-5-5-5-5-5-5-5-5-|
E|---------------------|---------------------|---------------------|

G|---------------------|2x
D|---------------------|
A|-5-5-5-5-5-5-5-5-----|
E|---------------------|

Ending:
Same as the intro but then in a faster pace
G|-----------------|-----------------|-----------------|-----------------|2x
D|-----------------|-----------------|-----------------|-----------------|
A|-7-7-7-7-7-7-7-7-|-3-3-3-3-3-3-3-3-|-5-5-5-5-5-5-5-5-|-7-7-7-7-5-5-5-5-|
E|-----------------|-----------------|-----------------|-----------------|

G|-------------------------|-----------------|-----------------|---------------------|
D|-------------------------|-----------------|-----------------|---------------------|
A|-10-10-10-10-10-10-10-10-|-6-6-6-6-6-6-6-6-|-8-8-8-8-8-8-8-8-|-10-10-10-10-8-8-8-8-|
E|-------------------------|-----------------|-----------------|---------------------|

G|-----------------|-----------------|-----------------|-----------------|7x
D|-----------------|-----------------|-----------------|-----------------|
A|-7-7-7-7-7-7-7-7-|-3-3-3-3-3-3-3-3-|-5-5-5-5-5-5-5-5-|-7-7-7-7-5-5-5-5-|
E|-----------------|-----------------|-----------------|-----------------|
Eight time is the last one

G|-----------------|-----------------|-----------------|-----------------|
D|-----------------|-----------------|-----------------|-----------------|
A|-7-7-7-7-7-7-7-7-|-3-3-3-3-3-3-3-3-|-5-------5/7-----|-7777777---------|
E|-----------------|-----------------|--------------0--|---------7777777-|

I Hope this tab helped you.
If you have questions or found mistakes PM me.

            
            
Suggest correction
Creating personal tab
Creating personal tab
You can edit any tab online and save it as your Personal.

You can edit, replace or remove any tab part or add personal notes – all changes will be seen only by you.

Personal tabs can be accessed anytime from any device, even offline.
Learn more »
comments
print report bad tab
2 comments total.
0 reply
nilschpilsch 213 May 22, 2010 10:40 AM

excellent, the only thing i'm not too sure about is the
G|----9----9----10---10|
D|---------------------|
A|-10---10---8----8----|
E|---------------------|
part. Haven't come up with a correction though

0 reply
hemmick 33 Sep 11, 2012 12:04 AM

Probably should just read like this to become octaves like the rest of the section:

G|----12---12----10---10|
D|---------------------|
A|-10---10---8----8----|
E|---------------------|

guest
You may want to rate the tab now too:
select rating
Wanna post a correction for this tab? Suggest correction