Oops, an error
Loading. Please wait.
We have an official The Trooper tab made by UG professional guitarists. Check out the tab »
×

The Trooper bass

version 5
version 5

Whole song

12,271 views 3 this week
no commentswrite comment
1 2 3 4 5
x 3
add to favorites
×
Save as Personal and add changes to this tab that will be seen only by you. Learn more ›
×
You can save this tab as Personal to edit and correct it or add notes. All changes will be seen only by you. Learn more »
launch autoscroll
font size
0
reset
guitar tuner
backing track
0:00
0:00
edit
Autoscroll
slow
fast
+/-
esc
set tempo
stop
Author
Difficulty
intermediate
Song: The Trooper
Album: Piece of Mind
Artist: Iron Maiden
Bassist: Steve Harris
Tuning: Standard (E A D G)

Notes:
- Make sure you choke the note after you do the triplet (gallop), otherwise, it 
doesn't really make much sense.
- Tablature timing is not perfect, so you'll have to work out the timing yourself 
(please consider that this is my first tab)

Intro/Outro riff
G [9-9-9p7----7-7-7p5----5-5-5p4-----------------]
D [--------9----------7----------5----5----------]
A [---------------------------------5---5-7------]
E [----------------------------------------------]

Main riff #1
G [----------------------------------------------]
D [--------------------------5-------------------]
A [7-777-777-777-777-777-0-5---5-7---------------] 
E [----------------------------------------------]  
(You'll use this riff before jumping to the chorus riff.
When jumping to the chorus riff, don't play last 4 notes.)

Main riff #2
G [----------------------------------------------]
D [--------------------------5-------------------]
A [3-333-333-333-333-333-0-5---5-7---------------]
E [----------------------------------------------]

First verse riff #1
G [----------------------------------------------]
D [----------------------------------------------]
A [--5-------------------------------------------]
E [5---5-7---------------------------------------]

First verse riff #2
G [----------------------------------------------]
D [----------------------------------------------]
A [--5-------------------------------------------]
E [5---5-3---------------------------------------]

Chorus riff #1
G [----------------------------------------------]
D [----------------------------------------------]
A [5-5-555-555-555-555-555-555-555---------------]
E [----------------------------------------------]

Chorus riff #2
G [----------------------------------------------]
D [----------------------------------------------]
A [7-7-777-777-777-777-777-777-777---------------] 
E [----------------------------------------------]  
(When you do this riff for the second time,
don't do 7 gallops, do 6 gallops, and then do the chorus end riff)

Chorus end riff
G [----------------------------------------------]
D [----5-----------------------------------------]
A [0-5---5-7-------------------------------------]
E [----------------------------------------------]

Solo riff #1
G [----------------------------------------------------5-------7--]
D [--------------------------------------------------5---5---7---7]
A [777-777-777-777-555-555-555-555-222-222-222-222-3-------5------]
E [---------------------------------------------------------------]

Solo riff #2
G [----------------------------------------------------5-------7--]
D [777-777-777-777-555-555-555-555-222-222-222-222-3-5---5-5-7---7]
A [---------------------------------------------------------------]
E [---------------------------------------------------------------]

            
            
Suggest correction
Creating personal tab
Creating personal tab
You can edit any tab online and save it as your Personal.

You can edit, replace or remove any tab part or add personal notes – all changes will be seen only by you.

Personal tabs can be accessed anytime from any device, even offline.
Learn more »
Give kudos to tab author, rate the tab!
1 2 3 4 5
comments
print report bad tab
guest
You may want to rate the tab now too:
select rating
Wanna post a correction for this tab? Suggest correction