Oops, an error
Loading. Please wait.

Transylvania drums

version 2
version 2

Whole song

82 views 1 this week
no commentswrite comment
1 2 3 4 5
x 4
add to favorites
×
Save as Personal and add changes to this tab that will be seen only by you. Learn more ›
×
You can save this tab as Personal to edit and correct it or add notes. All changes will be seen only by you. Learn more »
launch autoscroll
font size
0
reset
guitar tuner
backing track
0:00
0:00
edit
Autoscroll
slow
fast
+/-
esc
set tempo
stop
Author
Difficulty
                                 Transylvania                                   


                                 Iron Maiden

Nicko McBrain



             Intro                            
     S       W                E   E.   E.   4x
C||----||---36-------------------36---36----||
C||----||---44-------------------44---44----||
C||----||*--49-------------------49---57---*||
C||----||*---------------------------------*||
C||----||-----------------------------------||
C||----||-----------------------------------||


    W                E   E.   E.   3x   W                E   E.   E.   
---36-------------------36---36----||--36-------------------36---36---|
---44-------------------44---44----||--44-------------------44---44---|
*--49-------------------49---57---*||--49-------------------49---57---|
*---------------------------------*||---------------------------------|
-----------------------------------||---------------------------------|
-----------------------------------||---------------------------------|


     Riff A                                             
     E      E   E   E   E   E   E   E   E   E   E   E   
|---36-----44--36--38--36--44--36--44--36--38--36--44--|
|---44-----59--44--44--59--59--44--59--44--44--59--59--|
|*--49---------59--------------59------59--------------|
|*-----------------------------------------------------|
|------------------------------------------------------|
|------------------------------------------------------|


   E   E   E   E   E   E   E   E   E   E   E   E   
--36--44--36--38--36--44--36--44--36--38--36--44--|
--44--59--44--44--59--59--44--59--44--44--59--59--|
--59------59--------------59------59--------------|
--------------------------------------------------|
--------------------------------------------------|
--------------------------------------------------|


   E   E   E   E   E   E   E   E   E   E   E   E   
--36--44--36--38--36--44--36--44--36--38--36--44--|
--44--59--44--44--59--59--44--59--44--44--59--59--|
--49------59--------------59------59--------------|
--------------------------------------------------|
--------------------------------------------------|
--------------------------------------------------|


   E   E   E   E   E   E   E   E   E   E   E   E   
--36--44--36--38--36--44--36--44--36--38--36--44--|
--44--59--44--44--59--59--44--59--44--44--59--59--|
--59------59--------------59------59--------------|
--------------------------------------------------|
--------------------------------------------------|
--------------------------------------------------|


   E   E   E   E   E   E   E   E   E   E   E   E   
--36--44--36--38--36--44--36--44--36--38--36--44--|
--44--59--44--44--59--59--44--59--44--44--59--59--|
--49------59--------------59------59--------------|
--------------------------------------------------|
--------------------------------------------------|
--------------------------------------------------|


   E   E   E   E   E   E   E   E   E   E   E   E   
--36--44--36--38--36--44--36--44--36--38--36--44--|
--44--59--44--44--59--59--44--59--44--44--59--59--|
--59------59--------------59------59--------------|
--------------------------------------------------|
--------------------------------------------------|
--------------------------------------------------|


   E   E   E   E   E   E   E   E   E   E   E   E   
--36--44--36--38--36--44--36--44--36--38--36--44--|
--44--59--44--44--59--59--44--59--44--44--59--59--|
--49------59--------------59------59--------------|
--------------------------------------------------|
--------------------------------------------------|
--------------------------------------------------|


   E   E   E   E   E   E   E   E   E   E   E   E     
--36--44--36--38--36--44--36--44--36--38--44--36---||
--44--59--44--44--59--59--44--59--44--44--59--59---||
--59------59--------------59------59--------------*||
--------------------------------------------------*||
---------------------------------------------------||
---------------------------------------------------||


   E   E   E   E   E   E   E   E   E   E   E   E   
--36--44--36--38--36--44--36--44--36--38--36--36--|
--44--59--44--44--59--59--44--59--44--44--59--59--|
--59------59--------------59------59--------------|
--------------------------------------------------|
--------------------------------------------------|
--------------------------------------------------|


     Riff B                                   
     Q.      Q.         E   E   E   E   Q     
|---36------36------38g38--36--36--38---L----|
|---44------44---------------------44---L----|
|*--49------57---------------------49---L----|
|*-------------------------------------------|
|--------------------------------------------|
|--------------------------------------------|


   Q.      Q.         E   E   E   E   Q     3x
--36------36------38g38--36--36--36---L-----||
--44------44---------------------44---L-----||
--49------57---------------------49---L----*||
-------------------------------------------*||
--------------------------------------------||
--------------------------------------------||


   Q.      Q.         E   E   E   E   Q        Q.      Q.      
--36------36------38g38--36--36--38---L----|--36------36------|
--44------44---------------------44---L----|--44------44------|
--49------57---------------------49---L----|--49------57------|
-------------------------------------------|------------------|
-------------------------------------------|------------------|
-------------------------------------------|------------------|


   Riff A                                             
   E      E   E   E   E   E   E   E   E   E   E   E   
--36-----44--36--38--36--44--36--44--36--38--36--44--|
--44-----59--44--44--59--59--44--59--44--44--59--59--|
--49---------59--------------59------59--------------|
-----------------------------------------------------|
-----------------------------------------------------|
-----------------------------------------------------|


   E   E   E   E   E   E   E   E   E   E   E   E   
--36--44--36--38--36--44--36--44--36--38--36--44--|
--44--59--44--44--59--59--44--59--44--44--59--59--|
--59------59--------------59------59--------------|
--------------------------------------------------|
--------------------------------------------------|
--------------------------------------------------|


   E   E   E   E   E   E   E   E   E   E   E   E   
--36--44--36--38--36--44--36--44--36--38--36--44--|
--44--59--44--44--59--59--44--59--44--44--59--59--|
--49------59--------------59------59--------------|
--------------------------------------------------|
--------------------------------------------------|
--------------------------------------------------|


   E   E   E   E   E   E   E   E   E   E   E   E   
--36--44--36--38--36--44--36--44--36--38--36--44--|
--44--59--44--44--59--59--44--59--44--44--59--59--|
--59------59--------------59------59--------------|
--------------------------------------------------|
--------------------------------------------------|
--------------------------------------------------|


   E   E   E   E   E   E   E   E   E   E   E   E   
--36--44--36--38--36--44--36--44--36--38--36--44--|
--44--59--44--44--59--59--44--59--44--44--59--59--|
--49------59--------------59------59--------------|
--------------------------------------------------|
--------------------------------------------------|
--------------------------------------------------|


   E   E   E   E   E   E   E   E   E   E   E   E   
--36--44--36--38--36--44--36--44--36--38--36--44--|
--44--59--44--44--59--59--44--59--44--44--59--59--|
--59------59--------------59------59--------------|
--------------------------------------------------|
--------------------------------------------------|
--------------------------------------------------|


   E   E   E   E   E   E   E   E   E   E   E   E   
--36--44--36--38--36--44--36--44--36--38--36--44--|
--44--59--44--44--59--59--44--59--44--44--59--59--|
--49------59--------------59------59--------------|
--------------------------------------------------|
--------------------------------------------------|
--------------------------------------------------|


   E   E   E   E   E   E   E   E   E   E   E   E   
--36--44--36--38--36--44--36--44--36--38--36--36--|
--44--59--44--44--59--59--44--59--44--44--59--59--|
--59------59--------------59------59--------------|
--------------------------------------------------|
--------------------------------------------------|
--------------------------------------------------|


     Riff B                                   
     Q.      Q.         E   E   E   E   Q     
|---36------36------38g38--36--36--38---L----|
|---44------44---------------------44---L----|
|*--49------57---------------------49---L----|
|*-------------------------------------------|
|--------------------------------------------|
|--------------------------------------------|


   Q.      Q.         E   E   E   E   Q     3x
--36------36------38g38--36--36--36---L-----||
--44------44---------------------44---L-----||
--49------57---------------------49---L----*||
-------------------------------------------*||
--------------------------------------------||
--------------------------------------------||


   Q.      Q.         E   E   E   E   Q        Q.      Q.      
--36------36------38g38--36--36--38---L----|--36------36------|
--44------44---------------------44---L----|--44------44------|
--49------57---------------------49---L----|--49------57------|
-------------------------------------------|------------------|
-------------------------------------------|------------------|
-------------------------------------------|------------------|


     Break                                                              
     W                E   E.   E.   3x   W                E   E.   E.   
|---36-------------------36---36----||--36-------------------36---36---|
|---44-------------------44---44----||--44-------------------44---44---|
|*--49-------------------49---57---*||--49-------------------49---57---|
|*---------------------------------*||---------------------------------|
|-----------------------------------||---------------------------------|
|-----------------------------------||---------------------------------|


   Riff C                                                         
   E      S  E   S  S  S  S  E   S  E   S  E   S  S  S  S  E   S  
--36-----36-38--38-36-36-36-38--36-36--36-38--38-36-36-36-38--36-|
--44-----44-44--44-------44-44--44-44--44-44--44-------44-44--44-|
--49-------------------------------46----------------------------|
-----------------------------------------------------------------|
-----------------------------------------------------------------|
-----------------------------------------------------------------|


   E   S  E   S  S  S  S  E   S  E   S  E   S  S  S  S  E   S  
--36--36-38--38-36-36-36-38--36-36--36-38--38-36-36-36-38--36-|
--44--44-44--44-------44-44--44-44--44-44--44-------44-44--44-|
--46----------------------------46----------------------------|
--------------------------------------------------------------|
--------------------------------------------------------------|
--------------------------------------------------------------|


   E   S  E   S  S  S  S  E   S  E   S  E   S  S  S  S  E   S  
--36--36-38--38-36-36-36-38--36-36--36-38--38-36-36-36-38--36-|
--44--44-44--44-------44-44--44-44--44-44--44-------44-44--44-|
--46----------------------------46----------------------------|
--------------------------------------------------------------|
--------------------------------------------------------------|
--------------------------------------------------------------|


   Solo 1 Adrian Smith                                                         
   E                   S  E   S  S  S  S  E   S  E   S  E   S  S  S  S  E   S  
--36------------------36-38--38-36-36-36-38--36-36--36-38--38-36-36-36-38--36-|
--44------------------44-44--44-------44-44--44-44--44-44--44-------44-44--44-|
--46--------------------------------------------46----------------------------|
------------------------------------------------------------------------------|
------------------------------------------------------------------------------|
------------------------------------------------------------------------------|


   E   S  E   S  S  S  S  E   S  E   S  E   S  S  S  S  E   S  
--36--36-38--38-36-36-36-38--36-36--36-38--38-36-36-36-38--36-|
--44--44-44--44-------44-44--44-44--44-44--44-------44-44--44-|
--49----------------------------46----------------------------|
--------------------------------------------------------------|
--------------------------------------------------------------|
--------------------------------------------------------------|


   E   S  E   S  S  S  S  E   S  E   S  E   S  S  S  S  E   S  
--36--36-38--38-36-36-36-38--36-36--36-38--38-36-36-36-38--36-|
--44--44-44--44-------44-44--44-44--44-44--44-------44-44--44-|
--46----------------------------46----------------------------|
--------------------------------------------------------------|
--------------------------------------------------------------|
--------------------------------------------------------------|


   E   S  E   S  S  S  S  E   S  E   S  E   S  S  S  S  E   S  
--36--36-38--38-36-36-36-38--36-36--36-38--38-36-36-36-38--36-|
--44--44-44--44-------44-44--44-44--44-44--44-------44-44--44-|
--46----------------------------46----------------------------|
--------------------------------------------------------------|
--------------------------------------------------------------|
--------------------------------------------------------------|


   E   S  E   S  S  S  S  E   S  E   S  E   S  S  S  S  E   S  
--36--36-38--38-36-36-36-38--36-36--36-38--38-36-36-36-38--36-|
--44--44-44--44-------44-44--44-44--44-44--44-------44-44--44-|
--46----------------------------46----------------------------|
--------------------------------------------------------------|
--------------------------------------------------------------|
--------------------------------------------------------------|


   E   S  E   S  S  S  S  E   S  E   S  E   S  S  S  S  E   S  
--36--36-38--38-36-36-36-38--36-36--36-38--38-36-36-36-38--36-|
--44--44-44--44-------44-44--44-44--44-44--44-------44-44--44-|
--49----------------------------46----------------------------|
--------------------------------------------------------------|
--------------------------------------------------------------|
--------------------------------------------------------------|


   E   S  E   S  S  S  S  E   S  E   S  E   S  S  S  S  E   S  
--36--36-38--38-36-36-36-38--36-36--36-38--38-36-36-36-38--36-|
--44--44-44--44-------44-44--44-44--44-44--44-------44-44--44-|
--46----------------------------46----------------------------|
--------------------------------------------------------------|
--------------------------------------------------------------|
--------------------------------------------------------------|


   E   S  E   S  S  S  S  E   S  E   S  E   S  S  S  S  E   S  
--36--36-38--38-36-36-36-38--36-36--36-38--38-36-36-36-38--36-|
--44--44-44--44-------44-44--44-44--44-44--44-------44-44--44-|
--49----------------------------46----------------------------|
--------------------------------------------------------------|
--------------------------------------------------------------|
--------------------------------------------------------------|


   E   S  E   S  S  S  S  E   S  E   S  E   S  S  S  S  E   S  
--36--36-38--38-36-36-36-38--36-36--36-38--38-36-36-36-38--36-|
--44--44-44--44-------44-44--44-44--44-44--44-------44-44--44-|
--46----------------------------46----------------------------|
--------------------------------------------------------------|
--------------------------------------------------------------|
--------------------------------------------------------------|


   E   S  E   S  S  S  S  E   S  E   S  E   S  S  S  S  E   S  
--36--36-38--38-36-36-36-38--36-36--36-38--38-36-36-36-38--36-|
--44--44-44--44-------44-44--44-44--44-44--44-------44-44--44-|
--46----------------------------46----------------------------|
--------------------------------------------------------------|
--------------------------------------------------------------|
--------------------------------------------------------------|


   E   S  E   S  S  S  S  E   S  E   S  E   S  S  S  S  E   S  
--36--36-38--38-36-36-36-38--36-36--36-38--38-36-36-36-38--36-|
--44--44-44--44-------44-44--44-44--44-44--44-------44-44--44-|
--49----------------------------46----------------------------|
--------------------------------------------------------------|
--------------------------------------------------------------|
--------------------------------------------------------------|


   E   S  E   S  S  S  S  E   S  E   S  E   S  S  S  S  E   S  
--36--36-38--38-36-36-36-38--36-36--36-38--38-36-36-36-38--36-|
--44--44-44--44-------44-44--44-44--44-44--44-------44-44--44-|
--46----------------------------46----------------------------|
--------------------------------------------------------------|
--------------------------------------------------------------|
--------------------------------------------------------------|


   E   S  E   S  S  S  S  E   S  E   S  E   S  S  S  S  S  S  S  
--36--36-38--38-36-36-36-38--36-36--36-38--38-48-48-47-45-43-41-|
--44--44-44--44-------44-44--44-44--44-44--44-------------------|
--49----------------------------46------------------------------|
----------------------------------------------------------------|
----------------------------------------------------------------|
----------------------------------------------------------------|


   Riff C                                                         
   E      S  E   S  S  S  S  E   S  E   S  E   S  S  S  S  E   S  
--36-----36-38--38-36-36-36-38--36-36--36-38--38-36-36-36-38--36-|
--44-----44-44--44-------44-44--44-44--44-44--44-------44-44--44-|
--46-------------------------------46----------------------------|
-----------------------------------------------------------------|
-----------------------------------------------------------------|
-----------------------------------------------------------------|


   E   S  E   S  S  S  S  E   S  E   S  E   S  S  S  S  E   S  
--36--36-38--38-36-36-36-38--36-36--36-38--38-36-36-36-38--36-|
--44--44-44--44-------44-44--44-44--44-44--44-------44-44--44-|
--49----------------------------46----------------------------|
--------------------------------------------------------------|
--------------------------------------------------------------|
--------------------------------------------------------------|


   E   S  E   S  S  S  S  E   S  E   S  E   S  S  S  S  E   S  
--36--36-38--38-36-36-36-38--36-36--36-38--38-36-36-36-38--36-|
--44--44-44--44-------44-44--44-44--44-44--44-------44-44--44-|
--46----------------------------46----------------------------|
--------------------------------------------------------------|
--------------------------------------------------------------|
--------------------------------------------------------------|


   S  S  S  S  S  S  S  S  S  S  S  S  S  S  S  S  S  S  S  S  S  S  S  S  
--47-47-38-38-38-47-47-38-38-38-47-47-45-47-43-45-43-41-47-45-43-41-43-36-|
-----------------------------------------------------------------------44-|
-----------------------------------------------------------------------49-|
--------------------------------------------------------------------------|
--------------------------------------------------------------------------|
--------------------------------------------------------------------------|


  Break                                                             
  H        H        Q    E  S  S    H        H        Q    E  S  S  
--L---------------------------36-|--L---------------------------36-|
--L---------------------------44-|--L---------------------------44-|
--L---------------------------49-|--L---------------------------49-|
---------------------------------|---------------------------------|
---------------------------------|---------------------------------|
---------------------------------|---------------------------------|


  H        E  S  S H        E  S  S  
--L--------L--L-36-L--------L--L-36-|
--L--------L--L-44-L--------L--L-44-|
--L--------L--L-57-L--------L--L-49-|
------------------------------------|
------------------------------------|
------------------------------------|


  H        Q     S  S  S  S  S  S  S  S  S  S  S  S  
--L-------------38-38-38-38-38-38-38-38-38-38-38-38-|
--L-------------------------------------------------|
--L-------------------------------------------------|
----------------------------------------------------|
----------------------------------------------------|
----------------------------------------------------|


   Riff D                                                         
   E      S  E   S  S  S  S  E   S  E   S  E   S  S  S  S  E   S  
--36-----36-38--38-36-36-36-38--36-36--36-38--38-36-36-36-38--36-|
--44-----44-44--44-------44-44--44-44--44-44--44-------44-44--44-|
--49-------------------------------46----------------------------|
-----------------------------------------------------------------|
-----------------------------------------------------------------|
-----------------------------------------------------------------|


   E   S  E   S  S  S  S  E   S  E   S  E   S  S  S  S  E   S  
--36--36-38--38-36-36-36-38--36-36--36-38--38-36-36-36-38--36-|
--44--44-44--44-------44-44--44-44--44-44--44-------44-44--44-|
--46----------------------------46----------------------------|
--------------------------------------------------------------|
--------------------------------------------------------------|
--------------------------------------------------------------|


   E   S  E   S  S  S  S  E   S  E   S  E   S  S  S  S  E   S  
--36--36-38--38-36-36-36-38--36-36--36-38--38-36-36-36-38--36-|
--44--44-44--44-------44-44--44-44--44-44--44-------44-44--44-|
--46----------------------------46----------------------------|
--------------------------------------------------------------|
--------------------------------------------------------------|
--------------------------------------------------------------|


   E   S  E   S  S  S  S  E   S  E   S  S  S  S  S  S  S  S  S  S  
--36--36-38--38-36-36-36-38--36-36--36-38-38-36-38-38-36-38-38-38-|
--44--44-44--44-------44-44--44-44--44----------------------------|
--46----------------------------46--------------------------------|
------------------------------------------------------------------|
------------------------------------------------------------------|
------------------------------------------------------------------|


   Solo 2 Dave Murray                                                         
   E                  S  E   S  S  S  S  E   S  E   S  E   S  S  S  S  E   S  
--36-----------------36-38--38-36-36-36-38--36-36--36-38--38-36-36-36-38--36-|
--44-----------------44-44--44-------44-44--44-44--44-44--44-------44-44--44-|
--49-------------------------------------------46----------------------------|
-----------------------------------------------------------------------------|
-----------------------------------------------------------------------------|
-----------------------------------------------------------------------------|


   E   S  E   S  S  S  S  E   S  E   S  E   S  S  S  S  E   S  
--36--36-38--38-36-36-36-38--36-36--36-38--38-36-36-36-38--36-|
--44--44-44--44-------44-44--44-44--44-44--44-------44-44--44-|
--46----------------------------46----------------------------|
--------------------------------------------------------------|
--------------------------------------------------------------|
--------------------------------------------------------------|


   E   S  E   S  S  S  S  E   S  E   S  E   S  S  S  S  E   S  
--36--36-38--38-36-36-36-38--36-36--36-38--38-36-36-36-38--36-|
--44--44-44--44-------44-44--44-44--44-44--44-------44-44--44-|
--46----------------------------46----------------------------|
--------------------------------------------------------------|
--------------------------------------------------------------|
--------------------------------------------------------------|


   E   S  E   S  S  S  S  E   S  E   S  E   S  S  S  S  E   S  
--36--36-38--38-36-36-36-38--36-36--36-38--38-36-36-36-38--36-|
--44--44-44--44-------44-44--44-44--44-44--44-------44-44--44-|
--46----------------------------46----------------------------|
--------------------------------------------------------------|
--------------------------------------------------------------|
--------------------------------------------------------------|


   E   S  E   S  S  S  S  E   S  E   S  E   S  S  S  S  E   S  
--36--36-38--38-36-36-36-38--36-36--36-38--38-36-36-36-38--36-|
--44--44-44--44-------44-44--44-44--44-44--44-------44-44--44-|
--49----------------------------46----------------------------|
--------------------------------------------------------------|
--------------------------------------------------------------|
--------------------------------------------------------------|


   E   S  E   S  S  S  S  E   S  E   S  E   S  S  S  S  E   S  
--36--36-38--38-36-36-36-38--36-36--36-38--38-36-36-36-38--36-|
--44--44-44--44-------44-44--44-44--44-44--44-------44-44--44-|
--46----------------------------46----------------------------|
--------------------------------------------------------------|
--------------------------------------------------------------|
--------------------------------------------------------------|


   E   S  E   S  S  S  S  E   S  E   S  E   S  S  S  S  E   S  
--36--36-38--38-36-36-36-38--36-36--36-38--38-36-36-36-38--36-|
--44--44-44--44-------44-44--44-44--44-44--44-------44-44--44-|
--49----------------------------46----------------------------|
--------------------------------------------------------------|
--------------------------------------------------------------|
--------------------------------------------------------------|


   E   S  E   S  S  S  S  E   S  E   S  S  S  S  S  S  S  S  S  S  
--36--36-38--38-36-36-36-38--36-36--38-38-38-36-38-38-36-38-38-38-|
--44--44-44--44-------44-44--44-44--------------------------------|
--46----------------------------46--------------------------------|
------------------------------------------------------------------|
------------------------------------------------------------------|
------------------------------------------------------------------|


   E   S  E   S  S  S  S  E   S  E   S  E   S  S  S  S  E   S  
--36--36-38--38-36-36-36-38--38-36--36-38--38-36-36-36-38--36-|
--44--44-44--44-------44-44--44-44--44-44--44-------44-44--44-|
--46----------------------------46-------------------------42-|
--------------------------------------------------------------|
--------------------------------------------------------------|
--------------------------------------------------------------|


   E   S  E   S  S  S  S  E   S  E   S  E   S  S  S  S  E   S  
--36--36-38--38-36-36-36-38--38-36--36-38--38-36-36-36-38--36-|
--44--44-44--44-------44-44--44-44--44-44--44-------44-44--44-|
--49----------------------------46-------------------------42-|
--------------------------------------------------------------|
--------------------------------------------------------------|
--------------------------------------------------------------|


   E   S  E   S  S  S  S  E   S  E   S  E   S  S  S  S  E   S  
--36--36-38--38-36-36-36-38--36-36--36-38--38-36-36-36-38--36-|
--44--44-44--44-------44-44--44-44--44-44--44-------44-44--44-|
--46----------------------------46----------------------------|
--------------------------------------------------------------|
--------------------------------------------------------------|
--------------------------------------------------------------|


   E   S  E   S  S  S  S  E   S  E   S  E   S  S  S  S  S  S  S  
--36--36-38--38-36-36-36-38--38-36--36-38--38-48-48-47-45-43-41-|
--44--44-44--44-------44-44--44-44--44-44--44-------------------|
--49----------------------------46------------------------------|
----------------------------------------------------------------|
----------------------------------------------------------------|
----------------------------------------------------------------|


   E   S  E   S  S  S  S  E   S  E   S  E   S  S  S  S  E   S  
--36--36-38--38-36-36-36-38--38-36--36-38--38-36-36-36-38--36-|
--44--44-44--44-------44-44--44-44--44-44--44-------44-44--44-|
--46----------------------------46-------------------------42-|
--------------------------------------------------------------|
--------------------------------------------------------------|
--------------------------------------------------------------|


   E   S  E   S  S  S  S  E   S  E   S  E   S  S  S  S  E   S  
--36--36-38--38-36-36-36-38--38-36--36-38--38-36-36-36-38--36-|
--44--44-44--44-------44-44--44-44--44-44--44-------44-44--44-|
--49----------------------------46-------------------------42-|
--------------------------------------------------------------|
--------------------------------------------------------------|
--------------------------------------------------------------|


   E   S  E   S  S  S  S  E   S  E   S  E   S  S  S  S  E   S  
--36--36-38--38-36-36-36-38--36-36--36-38--38-36-36-36-38--36-|
--44--44-44--44-------44-44--44-44--44-44--44-------44-44--44-|
--46----------------------------46----------------------------|
--------------------------------------------------------------|
--------------------------------------------------------------|
--------------------------------------------------------------|


   E   S  E   S  S  S  S  E   S  E   S  E   S  S  S  S  S  S  S  
--36--36-38--38-36-36-36-38--38-36--36-38--38-48-48-47-45-43-41-|
--44--44-44--44-------44-44--44-44--44-44--44-------------------|
--49----------------------------46------------------------------|
----------------------------------------------------------------|
----------------------------------------------------------------|
----------------------------------------------------------------|


   Riff C                                                         
   E      S  E   S  S  S  S  E   S  E   S  E   S  S  S  S  E   S  
--36-----36-38--38-36-36-36-38--36-36--36-38--38-36-36-36-38--36-|
--44-----44-44--44-------44-44--44-44--44-44--44-------44-44--44-|
--49-------------------------------46----------------------------|
-----------------------------------------------------------------|
-----------------------------------------------------------------|
-----------------------------------------------------------------|


   E   S  E   S  S  S  S  E   S  E   S  E   S  S  S  S  E   S  
--36--36-38--38-36-36-36-38--36-36--36-38--38-36-36-36-38--36-|
--44--44-44--44-------44-44--44-44--44-44--44-------44-44--44-|
--46----------------------------46----------------------------|
--------------------------------------------------------------|
--------------------------------------------------------------|
--------------------------------------------------------------|


   E   S  E   S  S  S  S  E   S  E   S  E   S  S  S  S  E   S  
--36--36-38--38-36-36-36-38--36-36--36-38--38-36-36-36-38--36-|
--44--44-44--44-------44-44--44-44--44-44--44-------44-44--44-|
--46----------------------------46----------------------------|
--------------------------------------------------------------|
--------------------------------------------------------------|
--------------------------------------------------------------|


   S  S  S  S  S  S  S  S  S  S  S  S  S  S  S  S  S  S  S  S  S  S  S  S  
--38-38-38-38-50-50-48-48-47-47-45-47-38-38-38-38-43-45-47-45-47-45-43-41-|
--------------------------------------------------------------------------|
--------------------------------------------------------------------------|
--------------------------------------------------------------------------|
--------------------------------------------------------------------------|
--------------------------------------------------------------------------|


   Riff D                                                         
   E      S  E   S  S  S  S  E   S  E   S  E   S  S  S  S  E   S  
--36-----36-38--38-36-36-36-38--36-36--36-38--38-36-36-36-38--36-|
--44-----44-44--44-------44-44--44-44--44-44--44-------44-44--44-|
--49-------------------------------46----------------------------|
-----------------------------------------------------------------|
-----------------------------------------------------------------|
-----------------------------------------------------------------|


   E   S  E   S  S  S  S  E   S  E   S  E   S  S  S  S  E   S  
--36--36-38--38-36-36-36-38--36-36--36-38--38-36-36-36-38--36-|
--44--44-44--44-------44-44--44-44--44-44--44-------44-44--44-|
--46----------------------------46----------------------------|
--------------------------------------------------------------|
--------------------------------------------------------------|
--------------------------------------------------------------|


   E   S  E   S  S  S  S  E   S  E   S  E.   E.   E.   
--36--36-38--38-36-36-36-38--36-36--36-38---36---36---|
--44--44-44--44-------44-44--44-44--44-44---44---44---|
--46----------------------------46-----55---49---57---|
------------------------------------------------------|
------------------------------------------------------|
------------------------------------------------------|


   Q.      E.   Q     E.   Q     E.   S  
--36------36---36----36---36----36---36-|
--44------38---38----45---45----43---43-|
--49------------------------------------|
----------------------------------------|
----------------------------------------|
----------------------------------------|


   E.   E   E   E   E   E   E   E   E   E   E   S  
---L---36--36--38--38--36--36--38--36--36--36--36-|
---L---41--41-------------------------------------|
--------------------------------------------------|
--------------------------------------------------|
--------------------------------------------------|
--------------------------------------------------|


   S  S  S  S  S  S  S  S  S  S  S  S  S  S  S  S  E   E   E   E   
--36-36-36-36-36-36-36-36-36-36-36-36-36-36-36-36-36--36--36--36--|
------------------------------------------------------------------|
------------------------------------------------------------------|
------------------------------------------------------------------|
------------------------------------------------------------------|
------------------------------------------------------------------|


                                     Outro                           
   H.            S  E.  H            Q.      Q.      Q.      Q.      
--36------------38-38------------|--36------36------36------36------|
---------------------------------|--44------44------44------44------|
---------------------------------|--49------57------49------57------|
---------------------------------|----------------------------------|
---------------------------------|----------------------------------|
---------------------------------|----------------------------------|


   Q.      H         H        E   
--36------36--------36--------L--|
--44------44--------44--------L--|
--49------57--------49--------L--|
---------------------------------|
---------------------------------|
---------------------------------|


                  |----3----|    |----3----|    |----3---|  |--3--|  |--3--|   |
   H.             S    S    S    S    S    S    S    S   S  S  S  S  S  S  S   S
--36------------(49)-(49)-(49)-(49)-(49)-(49)-(49)-(49)-49-49-49-49-49-49-49-(49
--44----------------------------------------------------------------------------
--49----------------------------------------------------------------------------
--------------------------------------------------------------------------------
--------------------------------------------------------------------------------
--------------------------------------------------------------------------------


    |----3----|    |----3----|   |--3--|  |--3--|  |---3--|    |----3----|      
    S    S    S    S    S    S   S  S  S  S  S  S  S  S   S    S    S    S   Q. 
--(49)-(49)-(49)-(49)-(49)-(49)-49-49-49-49-49-49-49-49-(49)-(49)-(49)-(49)-----
----------------------------------------------------------------------------59--
--------------------------------------------------------------------------------
--------------------------------------------------------------------------------
--------------------------------------------------------------------------------
--------------------------------------------------------------------------------


   E.   E.   E.   E.   E.   E.   S. S. S. S. 
--36----------------------------36-36-36-36-|
------------51------------------51----------|
--59------------------59--------------------|
-------34--------34--------34---------34----|
--------------------------------------------|
--------------------------------------------|


   E.   E.   E.   E.   E.   E.   S. S. S. S. 
--36----------------------------36-36-36-36-|
------------51------------------51----------|
--59------------------59--------------------|
-------34--------34--------34---------34----|
--------------------------------------------|
--------------------------------------------|


   E.   E.   E.   E.   E.   E.   Q     E     H.           Q.      E.   E.   
--36----------------------------36----36--|--------------------------------|
------------51----------------------------|--------------------------------|
--59------------------59------------------|----------------------59--------|
-------34--------34--------34-------------|---------------------------34---|
------------------------------------------|--------------------------------|
------------------------------------------|--------------------------------|


                      |--3--|                                         
   T  T  Q.      E.   T  T  T  H.            S     W.                 
-----------------------------------------------|--------------------||
-----51----------------------------------------|--------------------||
-----------------------------------------------|--------------------||
--34----34-------L---34-34-34-34-------------L-|---L----------------||
-----------------------------------------------|--------------------||
-----------------------------------------------|--------------------||




Drums Legend:
---------------
Drums:

31...Sticks
37...Side Stick
38...Snare
40...Electric Snare
35...Acoustic Bass Drum
36...Bass Drum
41...Low Floor Tom
43...High Floor Tom
45...Low Tom
47...Low-Mid Tom
48...Hi-Mid Tom
50...High Tom


Cymbals:

42...Closed Hi Hat
44...Pedal Hi Hat
46...Open Hi Hat
49...Crash Cymbal 1
51...Ride Cymbal 1
52...Chinese Cymbal
55...Splash Cymbal
57...Crash Cymbal 2
59...Ride Cymbal 2


Others:

27...High Q
28...Slap
29...Scratch Push
30...Scratch Pull
32...Square Click
33...Metronome Click
34...Metronome Bell
39...Hand Clap
53...Ride Bell
54...Tambourine
56...Cowbell
58...Vibraslap
60...High Bongo
61...Low Bongo
62...Mute High Conga
63...Open High Conga
64...Low Conga
65...High Timbale
66...Low Timbale
67...High Agogo
68...Low Agogo
69...Cabasa
70...Maracas
71...Short Whistle
72...Long Whistle
73...Short Guiro
74...Long Guiro
75...Claves
76...High Wood Block
77...Low Wood Block
78...Mute Cuica
79...Open Cuica
80...Mute Triangle
81...Open Triangle
82...Shaker
83...Jingle Bell
84...Bell Tree
85...Castinets
86...Mute Surdo
87...Open Surdo



Duration Legend
---------------
W - whole
H - half
Q - quarter
E - 8th
S - 16th
T - 32nd
X - 64th
. - note dotted
|-n-|  - n-tuplets



Tablature Legend
----------------
L - tied note
x - dead note
g - grace note
(n) - ghost note
> - accentuded note
NH - natural harmonic
AH - artificial harmonic
TH - tapped harmonic
SH - semi harmonic
PH - pitch harmonic
h - hammer on
p - pull off
b - bend
br - bendRelease
pb - preBend
pbr - preBendRelease
brb - bendReleaseBend
\n/ - tremolo bar dip
\n - tremolo bar dive
-/n - tremolo bar Release up
/n\ - tremolo bar inverted dip
/n - tremolo bar return
-\n - tremolo bar Release down
S - shift slide
s - legato slide
/ -  slide into from below or out of upwards
\ -  slide into from above or out of downwards
~ - vibrato
W - wide vibrato
tr - trill
TP - tremolo picking
T - tapping
S - slap
P - pop
< - fade in
^ - brush up
v - brush down

            
            
Suggest correction
Creating personal tab
Creating personal tab
You can edit any tab online and save it as your Personal.

You can edit, replace or remove any tab part or add personal notes – all changes will be seen only by you.

Personal tabs can be accessed anytime from any device, even offline.
Learn more »
comments
print report bad tab
guest
You may want to rate the tab now too:
select rating
Wanna post a correction for this tab? Suggest correction