Oops, an error
Loading. Please wait.
We have an official Wasted Years tab made by UG professional guitarists. Check out the tab »
×
578 views 3 this week
no commentswrite comment
1 2 3 4 5
x 4
add to favorites
×
Save as Personal and add changes to this tab that will be seen only by you. Learn more ›
×
You can save this tab as Personal to edit and correct it or add notes. All changes will be seen only by you. Learn more »
launch autoscroll
font size
0
reset
guitar tuner
backing track
0:00
0:00
edit
Autoscroll
slow
fast
+/-
esc
set tempo
stop
Author
Difficulty
                                 Wasted Years                                   


                                 Iron Maiden

Nicko McBrain



           Intro                                                    
     S     S     S  S  S  S  S  S  S  S  S  S  S  S  S  T  T  T  T  
C||----|--42----42-42-42-42-42-42-42-42-42-42-42-42-42-42-42-42-42-|
C||----|-----------------------------------------------------------|
C||----|-----------------------------------------------------------|
C||----|-----------------------------------------------------------|
C||----|-----------------36----------------------36----------------|
C||----|-----------------------------------------------------------|


   S  S  S  S  S  S  S  S  S  S  S  S  S  S  T  T  T  T  
--42-42-42-42-42-42-42-42-42-42-42-42-42-42-42-42-42-42-|
--------------------------------------------------------|
--------------------------------------------------------|
--------------------------------------------------------|
--------------36----------------------36----------------|
--------------------------------------------------------|


   S  S  S  S  S  S  S  S  S  S  S  S  S  S  S  S  
--42-42-42-42-42-42-42-42-42-42-42-42-42-42-42-42-|
--------------------------------------------------|
--------------------------------------------------|
--------------------------------------------------|
--------------36----------------------36----------|
--------------------------------------------------|


   S  S  S  S  E.   S  E.   S  E.   S  
--42-42-42-42-46---42-46---42-46---42-|
--------------------------------------|
--------------------------------------|
--------------------------------------|
--------------36--------------36------|
--------------------------------------|


   Q     S  S  S  S  S  S  S  S  S  S  S  S  
--46----42-42-46--L-42-42-42-42-46--L-42-42-|
--------------------------------------------|
--------------------------------------------|
--------------------------------------------|
--------36----------------------36----------|
--------------------------------------------|


   S  S  S  S  S  S  S  S  S  S  S  S  S  S  S  T  T  
--42-42-46--L-42-42-42-42-46--L-42-42-46--L-42-42-42-|
-----------------------------------------------------|
-----------------------------------------------------|
-----------------------------------------------------|
--------------36----------------------36-------------|
-----------------------------------------------------|


   S  S  S  S  S  S  S  S  S  S  S  S  S  S  S  S  
--46--L-42-42-42-42-46--L-42-42-42-42-46--L-42-42-|
--------------------------------------------------|
--------------------------------------------------|
--------------------------------------------------|
--------------36----------------------36----------|
--------------------------------------------------|


   S  S  S  S  S  S  S  S  S  S  S  S  Q     
--42-42-46--L-42-42-42-42-46--L-42-55-46----|
--------------------------------------------|
--------------------------------------------|
--------------------------------------------|
--------------36----------------------36----|
--------------------------------------------|


   Q     S  S  S  S  S  S  S  S  S  S  S  S  
--------42-42-42-42-42-42-42-42-42-42-42-42-|
--------------------------------------------|
--------------------------------------------|
--49----------------------------------------|
--36----36----------------------36----------|
--------------------------------------------|


   S  S  S  S  S  S  S  S  S  S  S  S  S  S  S  T  T  
--42-42-46--L-42-42-42-42-46--L-42-42-46--L-42-42-42-|
-----------------------------------------------------|
-----------------------------------------------------|
-----------------------------------------------------|
--------------36----------------------36-------------|
-----------------------------------------------------|


   S  S  S  S  S  S  S  S  S  S  S  S  S  S  S  S  
--46--L-42-42-42-42-46--L-42-42-42-42-46--L-42-42-|
--------------------------------------------------|
--------------------------------------------------|
--------------------------------------------------|
--------------36----------------------36----------|
--------------------------------------------------|


   S  S  S  S  S  S  S  S  Q     Q     
--42-42-46--L-42-42-42-42-46----46----|
--------------------------------------|
--------------------------------------|
--------------------------------------|
--------------36----------------36----|
--------------------------------------|


   S  S  S  S  S  S  S  S  S  S  S  S  S  S  S  S  
--42-42-42-42-42-42-46--L-42-42-42-42-46--L-42-42-|
--------------------------------------------------|
--------------------------------------------------|
--------------------------------------------------|
--36----------------------36----------------------|
--------------------------------------------------|


   S  S  S  S  S  S  S  S  S  S  S  S  S  S  S  T  T  
--42-42-46--L-42-42-42-42-46--L-42-42-46--L-42-42-42-|
-----------------------------------------------------|
-----------------------------------------------------|
-----------------------------------------------------|
--36----------------------36-------------------------|
-----------------------------------------------------|


   S  S  S  S  S  S  S  S  S  S  E   E   E      W                 
--42-42-42-42-42-42-46--L-42-42-46--46--42--|--46----------------|
--------------------------------------------|--------------------|
--------------------------------------------|--------------------|
--------------------------------------------|--55----------------|
--36----------------------36------------36--|--36----------------|
--------------------------------------------|--------------------|


                                 Verse Riff                           
   H         E   E      Q        Q          E   E   E   E   E   S  S  
---L--------46---------------|-------------42--42--42--42--42--42-42-|
--------------------38g38----|-------------38--------------38--------|
-----------------------------|---------------------------------------|
---L-------------------------|--49-----------------------------------|
---L------------36-----------|--36-----------------36----------------|
-----------------------------|---------------------------------------|


   E   E   E   E   E   E   Q        E   E   E   S  S  E   E   E   E   
--42--42--42--42--42--46--46----|--42--42--42--42-42-42--42--42--42--|
----------38----------38--38----|----------38----------------38------|
--------------------------------|------------------------------------|
--------------------------------|------------------------------------|
--36--------------36------------|--36----------------36--------------|
--------------------------------|------------------------------------|


   E   E   E   E   E   E   E   E      Q     E   E   E   E   E   S  S  
--42--42--42--42--42--46--42--42--|--------42--42--42--42--42--42-42-|
----------38----------38----------|--------38--------------38--------|
----------------------------------|----------------------------------|
----------------------------------|--57------------------------------|
--36--------------36------36------|--36------------36----------------|
----------------------------------|----------------------------------|


   E   E   E   E   E   E   E   E      E   E   E   E   E   E   E   E   
--42--42--42--42--42--46--42--42--|--42--42--42--42--42--42--42--42--|
----------38--------------38------|----------38--------------38------|
----------------------------------|----------------------------------|
--------------------------55------|----------------------------------|
--36--------------36--------------|--36--------------36--------------|
----------------------------------|----------------------------------|


          |--3--|              |--3--|      |--3--|  
   E      S  S  S  E   E   E   S  S  S  E   S  S  S  
--46--------------46------42------------------------|
------38g38---------------38------------------------|
------------------45----------48-48-47-47--47-45-45-|
----------------------------------------------------|
--36--------36-36-36--36------36-----------36-------|
----------------------------------------------------|


   Q     E   E   Q     Q        E   E   E   E   E   E      Q     
--------42------42----------|--42-------------------------42----|
------------38--------38----|--------------------------38g38----|
--43------------------------|------48--48--47--45--43-----------|
------------55--------55----|-----------------------------------|
--------36------36----------|--36--------------36---------------|
----------------------------|-----------------------------------|


   Q     E   E   E   E   E   S  S     E   E   E   E   E   E   E   E   
--------42--42--42--42--42--42-42-|--42--42--42--42--42--42--46--42--|
--------38--------------38--------|----------38----------46--38------|
----------------------------------|----------------------------------|
--49------------------------------|----------------------------------|
--36------------36----------------|--36--------------36--------------|
----------------------------------|----------------------------------|


   E   E   E   S  S  E   E   E   E      E   E   E   E   E   E   E   E   
--42--42--42--42-42-42--42--42--42--|--42--42--42--42--42--46--46--42--|
----------38----------------38------|----------38----------38--38------|
------------------------------------|----------------------------------|
------------------------------------|----------------------------------|
--36----------------36--------------|--36--------------36--------------|
------------------------------------|----------------------------------|


                                            |--3--|                   
   Q     E   E   Q     Q        E   E   E   S  S  S  E   E      Q     
----------------------------|----------------------------------------|
------------38--------38----|------38-----------------------38g38----|
----------------------------|------48--45--48-47-47-47--47-----------|
--49----55--57--------55----|----------------------------------------|
--36----36------36----------|--36------36----------------------36----|
----------------------------|----------------------------------------|


   Verse Riff                                                            
   Q          E   E   E   E   E   S  S     E   E   E   E   E   E   Q     
-------------42--42--42--42--42--42-42-|--42--42--42--42--42--46--46----|
-------------38--------------38--------|----------38----------38--38----|
---------------------------------------|--------------------------------|
--49-----------------------------------|--------------------------------|
--36-----------------36----------------|--36--------------36------------|
---------------------------------------|--------------------------------|


   E   E   E   S  S  E   E   E   E      E   E   E   E   E   E   Q     
--42--42--42--42-42-42--42--42--42--|--42--42--42--42--42--42--46----|
----------38----------------38------|----------38--------------38----|
------------------------------------|--------------------------------|
------------------------------------|--------------------------------|
--36----------------36--------------|--36--------------36------------|
------------------------------------|--------------------------------|


   E   E   E   S  S  E   E   E   S  S     E   E   E   E   E   E   Q     
--42--42--42--42-42-42--42--42--42-42-|--42--42--42--42--42--46--46----|
----------38----------------38--------|----------38----------38--38----|
--------------------------------------|--------------------------------|
--------------------------------------|--------------------------------|
--36----------------36----------------|--36--------------36------------|
--------------------------------------|--------------------------------|


                                                                |--3--|  
   E   E   E   E   E   E   Q        E   E   E   E   E   E   E   S  S  S  
--42--42--42--42--42--42--------|--42------42--42------42--42-----------|
--------------38----------38----|------38----------38--38---------------|
--------------------------------|------48--47------47--45--45--48-47-45-|
--------------------------55----|---------------------------------------|
--36------36------36------------|--36------36---------------------------|
--------------------------------|---------------------------------------|


   Q     E   E   Q     Q        E   S  S  S  S  S  S  S  S  S  S     Q     
--------42------42----------|---------------------------------------------|
------------38--------38----|------------------------------------38g38----|
--43------------------------|------48-48-47-47-47-45-45-45-43-43----------|
------------49--------57----|---------------------------------------------|
--------36------36----------|--36--------36----------36-------------36----|
----------------------------|---------------------------------------------|


   Q     E   E   E   E   E   S  S     E   E   E   E   E   E   Q     
--------42--42--42--42--42--42-42-|--42--42--42--42--42--46--46----|
--------38--------------38--------|----------38----------38--38----|
----------------------------------|--------------------------------|
--49------------------------------|--------------------------------|
--36------------36----------------|--36--------------36------------|
----------------------------------|--------------------------------|


   E   E   E   S  S  E   E   E   E      E   E   E   E   E   E   E   E   
--42--42--42--42-42-42--42--42--42--|--42--42--42--42--42--42--42--42--|
----------38----------------38------|----------38--------------38------|
------------------------------------|----------------------------------|
------------------------------------|----------------------------------|
--36----------------36--------------|--36--------------36--------------|
------------------------------------|----------------------------------|


       |--3--|             |--3--|               
   E   S  S  S  E      E   S  S  S  E      Q     
------------------------------------------------|
--38---------------38g38---------------38g38----|
------48-47-45-43-----47--48-47-45-43-----------|
--49--------------------------------------57----|
--36------------------36------------------36----|
------------------------------------------------|


                                             Chorus                             
   E   E   S  E   S  S  S  S  S     Q        E      E   E   E   E   E   E   E   
-----------------------------------------|---------42--42--42--42--42--46--42--|
--------------------------------38g38----|-------------38--------------38------|
------48--48-48--47-47-47-45-45----------|-------------------------------------|
-----------------------------------------|--49---------------------------------|
--36----------------36-------------36----|--36-----------------36--------------|
-----------------------------------------|-------------------------------------|


   E   E   E   E   E   E   E   E      E   E   E   S  S  E   E   E   E   
------42--46--42------42--46--42--|------42--42--42-42-42--42--46--42--|
----------38--------------38------|----------38----------------38------|
----------------------------------|------------------------------------|
--57--------------55--------------|--57--------------------------------|
--36--------------36--------------|--36----------------36--------------|
----------------------------------|------------------------------------|


   E   E   E   E   E   E   E   E      E   E   E   E   E   E   E   S  S  
------42--46--42------42--46--42--|------42--42--42--42--42--46--------|
----------38--------------38------|----------38--------------38--------|
----------------------------------|------------------------------48-47-|
--49--------------57--------------|--49--------------------------------|
--36--------------36--------------|--36--------------36----------------|
----------------------------------|------------------------------------|


   E   E   E   E   E   E   Q        E   E   E   E   E   E   E   E   
------42--42--42--42--42--42----|----------------------------------|
----------38--------------------|--38----------38----------38------|
--------------------------------|----------------------------------|
--57----------------------------|--49----------57--55------55------|
--36--------------36------------|--36--36--36--36--36--36--36--36--|
--------------------------------|----------------------------------|


   E   E   E   E   E   E   Q        E   E   E   E   E   E   E   S  S  
--------------------------------|------42--42--42--42--42--42--42-42-|
------38----------38------38----|----------38--------------38--------|
--------------------------------|------------------------------------|
------57--55------49------57----|--49--------------------------------|
--36--36--36--36--36--36--36----|--36--------------36----------------|
--------------------------------|------------------------------------|


   E   E   E   S  S  E   E   E   S  S     E   E   E   E   E   E   E   S  S  
------42--42--42-42-----42--42--42-42-|------42--42--42--42--42--42--------|
----------38----------------38--------|----------38--------------38--------|
--------------------------------------|------------------------------48-48-|
--57----------------55----------------|--49--------------------------------|
--36----------------36----------------|--36--------------36----------------|
--------------------------------------|------------------------------------|


   E   E   E   S  S  E   E   E   S  S     E   E   E   E   E   E   E   S  S  
------42--42------------42--42--------|------42--42--42--42--42--42--------|
----------38----------------38--------|----------38--------------38--------|
--------------47-47-------------47-45-|------------------------------45-45-|
--57----------------55----------------|--49--------------------------------|
--36----------------36----------------|--36--------------36----------------|
--------------------------------------|------------------------------------|


   E   E   E   S  S  S  S  S  S  Q        E   E   E   E   E   S  S  E   E   
------42--42--------------------------|------------------------------------|
----------38--------38----------38----|--38--38------38--38--------38--38--|
--------------48-48----47-47-45-45----|------------------------------------|
--57----------------------------------|--49--49------57--57--------49--49--|
--36----------------36----------------|--36--36--36--36--36--36-36-36--36--|
--------------------------------------|------------------------------------|


   S  S  E   E   E   S  S  S  S  Q     
--------------------------------------|
--------38--38------38----------38----|
-----------------------48-48-47-43----|
--------57--57------49----------------|
--36-36-36--36--36--36----------36----|
--------------------------------------|


   Verse Riff                                                                  
   E          E   E   E   E   E   E   S  S     E   E   E   E   E   E   E   E   
--46---------42--42--42--42--42--42--42-42-|--42--42--42--42--42--46--46--42--|
-----------------38--------------38--------|----------38----------38--38------|
-------------------------------------------|----------------------------------|
-------------------------------------------|----------------------------------|
--36---------------------36----------------|--36--------------36--------------|
-------------------------------------------|----------------------------------|


   E   E   E   E   E   E   Q        E   E   E   S  S  E   E   E   E   
--42--42--42--42--42--46--------|--42--42--42--42-42-42--42--42--46--|
----------38--------------38----|----------38----------------38------|
--------------------------------|------------------------------------|
--------------------------55----|------------------------------------|
--36--------------36------------|--36----------------36--------------|
--------------------------------|------------------------------------|


   E   E   E   S  S  E   E   E   E      E   E   E   E   E   E   Q     
--42--42--42--42-42-42--42--42--42--|--42--42--42--42--42--46--46----|
----------38----------------38------|----------38----------38--38----|
------------------------------------|--------------------------------|
------------------------------------|--------------------------------|
--36----------------36--------------|--36--------------36------------|
------------------------------------|--------------------------------|


                                                      |--3--|      |--3--|  
   E   E   E   E   E   E   Q        E   E   Q     E   S  S  S  E   S  S  S  
--42--42--42------42--42--------|------------------------------------------|
--------------38----------38----|------38--------38------------------------|
--------------------------------|------45--43--------47-45-43-41--47-45-43-|
--------------55----------57----|------------------------------------------|
--36------36------36------------|--36------36----36-----------36-----------|
--------------------------------|------------------------------------------|


   Q     E   E   Q     Q        E   E   S  E   S  S  S  E      Q     
----------------------------|---------------------------------------|
------------38--------38----|------------------------------38g38----|
--41------------------------|------48--48-48--48-48-47-45-----------|
------------49--57----49----|---------------------------------------|
--36----36------36----36----|--36------36--------36-----------36----|
----------------------------|---------------------------------------|


   Q     E   E   E   E   E   E      E   E   E   E   E   E   Q     
--------42--42--42--42--42--42--|--42--42--42--42--42--46--46----|
--------38--------------38------|----------38----------38--38----|
--------------------------------|--------------------------------|
--49----------------------------|--------------------------------|
--36------------36--------------|--36--------------36------------|
--------------------------------|--------------------------------|


                                                                  |--3--|  
   E   E   E   E   E   E   Q        E   E   E   S  S  E   E   E   S  S  S  
--42--42--42--42--42--42--------|--42--42--42--------42--42--42-----------|
--------------38----------38----|----------38------------38--38-----------|
--------------------------------|--------------48-48-------------48-47-45-|
--------------------------57----|-----------------------------------------|
--36------36------36------------|--36----------------36-------------------|
--------------------------------|-----------------------------------------|


       |--3--|                      
   E   S  S  S  E   E   Q     Q     
-----------------------------------|
-------------------38--------38----|
--43--48-47-45-43------------------|
-------------------57--49----57----|
--36-----------36------36----36----|
-----------------------------------|


   E   S  S  S  S  S  S  S  S  S  S     Q     
---------------------------------------------|
------------------38----------------38g38----|
------48-48-48-47-47-47-45-45-45-45----------|
---------------------------------------------|
--36--------36----------36-------------36----|
---------------------------------------------|


   Chorus                                                                  
   Q      E   E   E   E   E   S  S     E   E   E   S  S  E   E   E   S  S  
---------51--51--51--51--51--51----|--51--51--51--51----51--51--51--51----|
---------38--------------38--------|----------38----------------38--------|
-----------------------------------|--------------------------------------|
--49-------------------------------|--------------------------------------|
--36-------------36-------------36-|--36-------------36-36-------------36-|
-----------------------------------|--------------------------------------|


   Q     E   E   E   E   E   E      Q     E   E   E   E   E   S  S  
--------51--51--51--51--51--51--|--------51--51--51--51--51--------|
--------38--------------38------|--------38--------------38--------|
--------------------------------|----------------------------45-43-|
--57----------------------------|--49------------57----------------|
--36------------36--------------|--36------------36----------------|
--------------------------------|----------------------------------|


   Q     E   E   E   E   E   S  S     Q     E   E   E   E   Q     
--------51--51--51--51--51--------|--------51--51--51--51--51----|
--------38--------------38--------|--------38--------------38----|
----------------------------45-43-|------------------------------|
--49------------------------------|--57--------------------------|
--36------------36----------------|--36------------36------------|
----------------------------------|------------------------------|


   E   E   E   E   E   E   E   E      E   E   E   E   E   E   Q     
----------------------------------|--------------------------------|
--38----------38----------38------|------38----------38------38----|
----------------------------------|--------------------------------|
--49----------57--57------49------|------57--57------49------57----|
--36--36--36--36--36--36--36--36--|--36--36--36--36--36--36--36----|
----------------------------------|--------------------------------|


   Q     E   S  S  E   E   E   S  S     E   E   E   S  S  E   E   E   S  S  
--------51--51----51--51--51--51----|--51--51--51--51----51--51--51--51----|
--------38----------------38--------|----------38----------------38--------|
------------------------------------|--------------------------------------|
--49--------------------------------|--------------------------------------|
--36-----------36-36-------------36-|--36-------------36-36-------------36-|
------------------------------------|--------------------------------------|


   E   E   E   E   E   E   E   S  S     E   E   E   S  S  E   E   E   E   
--51--51--51--51--51--51--51--51-46-|--42--42--51--51-46-42--42--51--51--|
----------38--------------38--------|----------38----------------38------|
------------------------------------|------------------------------------|
------------------------------------|------------------------------------|
--36--------------36----------------|--36----------------36--------------|
------------------------------------|------------------------------------|


   Q     E   E   E   E   E   S  S     E   E   E   E   Q     Q     
--------51--51--51--51--51--------|------51--51--51--51----51----|
--------38--------------38--------|----------38------------------|
----------------------------47-45-|------------------------------|
--57------------------------------|--49--------------------------|
--36------------36----------------|--36--------------36----36----|
----------------------------------|------------------------------|


   E   E   E   E   E   E   E   E      E   E   E   E   E   E   Q     
----------------------------------|--------------------------------|
--38--38------38--38------38--38--|------38--38------38--38--38----|
----------------------------------|--------------------------------|
--49--49------57--57------49--49--|------57--57------49--49--49----|
--36--36--36--36--36--36--36--36--|--36--36--36--36--36--36--36----|
----------------------------------|--------------------------------|


   Riff A                                     
   Q      S  S  S  S  S  S  S  S  S  S  S  S  
---------42-42-42-42-42-42-42-42-42-42-42-42-|
---------------------------------------------|
---------------------------------------------|
--57-----------------------------------------|
--36-----36----------------------36----------|
---------------------------------------------|


   S  S  S  S  S  S  S  S  S  S  S  S  S  S  S  T  T  
--42-42-46--L-42-42-42-42-46--L-42-42-46--L-42-42-42-|
-----------------------------------------------------|
-----------------------------------------------------|
-----------------------------------------------------|
--------------36----------------------36-------------|
-----------------------------------------------------|


   S  S  S  S  S  S  S  S  S  S  S  S  S  S  S  S  
--46--L-42-42-42-42-46--L-42-42-42-42-46--L-42-42-|
--------------------------------------------------|
--------------------------------------------------|
--------------------------------------------------|
--------------36----------------------36----------|
--------------------------------------------------|


   S  S  S  S  S  S  S  S  Q     Q     
--42-42-46--L-42-42-42-42-46----------|
--------------------------------------|
--------------------------------------|
--------------------------------55----|
--------------36----------------36----|
--------------------------------------|


   E   S  S  S  S  S  S  S  S  S  S  S  S  S  S  
--42--42-42-42-42-46--L-42-42-42-42-46--L-42-42-|
------------------------------------------------|
------------------------------------------------|
------------------------------------------------|
--36--------------------36----------------------|
------------------------------------------------|


   S  S  S  S  S  S  S  S  S  S  S  S  S  S  S  T  T  
--42-42-46--L-42-42-42-42-46--L-42-42-46--L-42-42-42-|
-----------------------------------------------------|
-----------------------------------------------------|
-----------------------------------------------------|
--36----------------------36-------------------------|
-----------------------------------------------------|


   S  S  S  S  S  S  S  S  S  S  S  S  S  S  S  S  
--46--L-42-42-42-42-46--L-42-42-42-42-46--L-42-42-|
--------------------------------------------------|
--------------------------------------------------|
--------------------------------------------------|
--36----------------------36----------------------|
--------------------------------------------------|


   S  S  S  S  S  S  S  S  S  S  S  S  Q     
--42-42-46--L-42-42-42-42-46--L-42-42-46----|
--------------------------------------------|
--------------------------------------------|
--------------------------------------------|
--36----------------------36----------------|
--------------------------------------------|


   S  S  S  S  S  S  S  S  S  S  S  S  S  S  S  S  
-----42-42-42-42-42-46--L-42-42-42-42-46--L-42-42-|
--------------------------------------------------|
--------------------------------------------------|
--49----------------------------------------------|
--36----------------------36----------------------|
--------------------------------------------------|


   S  S  S  S  S  S  S  S  S  S  S  S  Q        E   E   E   E   E   E   E   E   
--42-42-46--L-42-42-42-42-46--L-42-42-46----|----------42--42--42--42--42--42--|
--------------------------------------------|----------38--38--38--38--38--38--|
--------------------------------------------|----------------------------------|
--------------------------------------------|--57------------------------------|
--36----------------------36----------------|--36--36--36--36--36--36--36--36--|
--------------------------------------------|----------------------------------|


                                         Riff B                           
   E   E   E   E   E   S  S     Q        Q      E   E   E   E   E   S  S  
--42--42--42--42--42--42-42----------|---------51--51--51--51--51--51----|
--38--38--38--38--38--------38g38----|---------38--------------38--------|
------------------45-----------------|-----------------------------------|
-------------------------------------|--49-------------------------------|
--36--36--36--36--36-----36----36----|--36-------------36-------------36-|
-------------------------------------|-----------------------------------|


   E   E   E   E   E   E   E   E      E   E   E   S  S  E   E   E   E   
--51--51--51--51--51--51--51--46--|--42--51--51--51----51--51--51--51--|
----------38--------------38------|----------38----------------38------|
----------------------------------|------------------------------------|
----------------------------------|------------------------------------|
--36--------------36--------------|--36-------------36-36--------------|
----------------------------------|------------------------------------|


                               |--3--|                                   
   E   E   E   E   E   E   E   S  S  S     Q     E   E   E   E   E   E   
--51--51--51--51--51--51--51-----------|------------51--51--51--51--51--|
----------38----------38--38-----------|--------38--------------38------|
------------------------------48-47-45-|--------------------------------|
---------------------------------------|--57----55----------------------|
--36--------------36-------------------|--36------------36--------------|
---------------------------------------|--------------------------------|


   E   E   E   E   E   E   E   E      E   E   E   E   Q     E   E   
--51--51--51--51--51--51--51--51--|--------------------------------|
----------38--------------38------|--38----------38--------38------|
----------------------------------|--------------------------------|
----------------------------------|--49----------57--55----49------|
--36--------------36--------------|--36--36--36--36--36----36--36--|
----------------------------------|--------------------------------|


   E   E   Q     E   S  S  Q        Q     E   E   E   E   E   S  S  
--------------------------------|--------51--51--51--51--51--51----|
------38--------38--------38----|--------38--------------38--------|
--------------------------------|----------------------------------|
------57--55----49--------57----|--49------------------------------|
--36--36--36----36--36-36-36----|--36------------36-------------36-|
--------------------------------|----------------------------------|


   E   E   E   S  S  E   E   E   E      E   E   E   E   E   E   E   E   
--51--51--51--51----51--51--51--51--|--51--51--51--51--51--51--51--51--|
----------38----------------38------|----------38--------------38------|
------------------------------------|----------------------------------|
------------------------------------|----------------------------------|
--36-------------36-36--36----------|--36--------------36--------------|
------------------------------------|----------------------------------|


   E   E   E   E   E   E   E   E      Q     E   E   E   E   E   E   
--51--46--42--51--51--46--42--51--|--------51--51--51--51--51--51--|
----------38--------------38------|--------38--------------38------|
----------------------------------|--------------------------------|
----------------------------------|--49----------------------------|
--36--------------36--------------|--36------------36--------------|
----------------------------------|--------------------------------|


   E   E   E   E   E   E   E   S  S     Q     E   E   E   E   E   E   
--51--51--51--51--51--51--51--51----|------------51--51--51--51--51--|
------38----------38------38--------|------------38----------38------|
------------------------------41-41-|--------------------------------|
------------------------------------|--49----------------------------|
--36------36--------------36--------|--36----36------36--------------|
------------------------------------|--------------------------------|


   T  T  S  S  S  S  S  S  S  S  S  S  S     Q     
--------------------------------------------------|
--38-38-38-38-38-38-38-38-38-38-38-38-38-38g38----|
--------------------------------------------------|
--------------------------------------------------|
--36----------------------------------------36----|
--------------------------------------------------|


   Solo Adrian Smith                                                            
   Q                 E   E   E   E   E   E      E   E   E   E   E   E   E   E   
--------------------51--51--51--51--51--51--|--51--51--51--51--51--51--51--46--|
--------------------38--------------38------|----------38--------------38------|
--------------------------------------------|----------------------------------|
--49----------------------------------------|----------------------------------|
--36------------------------36--------------|--36--------------36--------------|
--------------------------------------------|----------------------------------|


   E   E   E   E   E   E   E   E      E   E   E   E   E   E   E   S  S  
--42--51--51--51--51--51--51--51--|--51--51--51--51--51--51--51--51----|
----------38--------------38------|----------38--------------38--------|
----------------------------------|------------------------------------|
----------------------------------|------------------------------------|
--36--------------36--------------|--36--------------36-------------36-|
----------------------------------|------------------------------------|


   E   E   E   E   E   E   E   E      E   E   E   E   E   E   E   S  S  
------51--51--51--51--51--51--51--|--51--51--51--51--51--51--51--51----|
----------38--------------38------|----------38--------------38--------|
----------------------------------|------------------------------45-43-|
--57------------------------------|------------------------------------|
--36--------------36--------------|--36--------------36----------------|
----------------------------------|------------------------------------|


   Q     E   E   E   E   E   E      E   E   Q     E   E   Q     
------------51--51--51--51--51--|--51--------------------------|
------------38----------38------|------38--38----38--38--38----|
--------------------------------|------------------------------|
--49----------------------------|------55--55----57--57--57----|
--36----36------36--------------|--36--36--36----36--36--36----|
--------------------------------|------------------------------|


   Q     E   E   E   E   E   E      E   E   E   S  S  E   E   E   E   
--------51--51--51--51--51--51--|--51--51--51--51----51--51--51--51--|
--------38--------------38------|----------38----------------38------|
--------------------------------|------------------------------------|
--49----------------------------|------------------------------------|
--36------------36--------------|--36-------------36-36--------------|
--------------------------------|------------------------------------|


   Q     E   E   E   E   E   S  S     E   E   E   E   E   E      Q     
------------51--51--51--51--51----|--51--51--51--51--51--51-----------|
------------38----------38--------|------38----------38------38g38----|
----------------------------------|-----------------------------------|
--57------------------------------|-----------------------------------|
--36----36------36----------36-36-|--36------36-----------------36----|
----------------------------------|-----------------------------------|


   Q     E   E   E   E   E   E      E   E   E   E   E   E   E   E   
--------51--51--51--51--51--51--|--51--51--51--51--51--51--51--51--|
--------38--------------38------|----------38--------------38------|
--------------------------------|----------------------------------|
--49----------------------------|----------------------------------|
--36------------36--------------|--36--------------36--------------|
--------------------------------|----------------------------------|


   T  T  S  S  S  S  S  E   S  S  S  S  S  S  S  S  
---------------------------------------------------|
-----------------38----38--------38----38-------38-|
--48-48-48-48-48-48-48-48--47-47-47-47-47-45-45-45-|
---------------------------------------------------|
--36-------------36--------36----------36----------|
---------------------------------------------------|


   S  S  S  S  S  S  S  S  S  S  S  S     Q     
-----------------------------------------------|
--38----------------------------------38g38----|
--45-48-48-48-47-47-45-45-43-43-41-41----------|
-----------------------------------------------|
--36----------36----------36-------------36----|
-----------------------------------------------|


   Chorus                                                                      
   E      E   E   E   E   E   E   S  S     E   E   E   S  S  E   E   E   S  S  
---------51--51--51--51--51--51--51-46-|--42--51--51--51-46-42--51--51--------|
-------------38--------------38--------|----------38----------------38--------|
---------------------------------------|--------------------------------45-43-|
--49-----------------------------------|--------------------------------------|
--36-----------------36-------------36-|--36----------36-36-------------------|
---------------------------------------|--------------------------------------|


   E   E   E   E   E   E   E   E      E   E   E   E   E   E   E   S  S  
------51--51--51--51--51--51--51--|------51--51--51------51--51--------|
----------38--------------38------|----------38--------------38--------|
----------------------------------|------------------------------45-43-|
--57------------------------------|--49--------------57----------------|
--36--------------36--------------|--36--------------36----------------|
----------------------------------|------------------------------------|


   E   E   E   E   E   E   E   S  S     E   E   E   E   E   E   Q     
------51--51--51--51--51--51--------|------51--51--51--51--51--51----|
----------38--------------38--------|----------38--------------------|
------------------------------45-43-|--------------------------------|
--49--------------------------------|--57----------------------------|
--36--------------36----------------|--36--------------36------36----|
------------------------------------|--------------------------------|


   E   E   E   E   E   E   E   E      E   E   E   E   E   E   Q     
----------------------------------|--------------------------------|
--38----------38----------38------|------38----------38------38----|
----------------------------------|--------------------------------|
--49----------57--55------57------|------49--55------49------57----|
--36--36--36--36--36--36--36--36--|--36--36--36--36--36--36--36----|
----------------------------------|--------------------------------|


   E   E   E   E   E   E   E   S  S     E   E   E   S  S  E   E   E   S  S  
------51--51--51--51--51--51--------|------51--51--------51--51--51--------|
----------38--------------38--------|----------38----------------38--------|
------------------------------45-43-|--------------45-43-------------45-43-|
--49--------------------------------|--57----------------49----------------|
--36--------------36----------------|--36----------------36----------------|
------------------------------------|--------------------------------------|


   E   E   E   E   E   E   E   S  S     E   E   E   S  S  E   E   E   E   
------51--51--51--51--51--51--------|------51--51------------51--51--51--|
----------38--------------38--------|----------38----------------38--38--|
------------------------------45-43-|--------------47-47-----------------|
--57--------------------------------|--57----------------55--------------|
--36--------------36----------------|--36----------------36--------------|
------------------------------------|------------------------------------|


   E   E   E   E   E   E   E   S  S     E   E   E   E   E   E   Q     
------51--51--51--51--51--51--------|------51--51--51--51--51--51----|
----------38--------------38--------|----------38--------------------|
------------------------------45-45-|--------------------------------|
--49--------------------------------|--57----------------------------|
--36--------------36----------------|--36--------------36------36----|
------------------------------------|--------------------------------|


   E   E   E   E   E   E   E   E      E   E   E   E   E   E   Q     
----------------------------------|--------------------------------|
--38----------38----------38--38--|------38--38------38------38----|
----------------------------------|--------------------------------|
--49----------57----------49--49--|------57--57------49------57----|
--36--36--36--36--36--36--36--36--|--36--36--36--36--36--36--36----|
----------------------------------|--------------------------------|


   Q     E   E   E   E   E   S  S     E   E   E   S  S  E   E   E   S  S  
--------51--51--51--51--51--51----|--51--51--51--51----51--51--51--51----|
--------38--------------38--------|----------38----------------38--------|
----------------------------------|--------------------------------45-43-|
--49------------------------------|--------------------------------------|
--36------------36-------------36-|--36-------------36-36----------------|
----------------------------------|--------------------------------------|


   Q     E   E   E   E   E   E      Q     E   E   E   E   E   E   
--------51--51--51--51--51--51--|--------51--51--51--51--51--51--|
--------38--------------38------|--------38--------------38------|
--------------------------------|--------------------------------|
--57----------------------------|--49------------57--------------|
--36------------36--------------|--36------------36--------------|
--------------------------------|--------------------------------|


   Q     E   E   E   E   E   S  S     Q     E   E   E   E   Q     
--------51--51--51--51--51--------|--------51--51--51--51--51----|
--------38--------------38--------|--------38--------------------|
----------------------------45-43-|------------------------------|
--49------------------------------|--57--------------------------|
--36------------36----------------|--36------------36------36----|
----------------------------------|------------------------------|


   E   E   E   E   E   E   E   E      E   E   E   E   E   E   Q     
----------------------------------|--------------------------------|
--38----------38--38------38------|------38--38------38------38----|
----------------------------------|--------------------------------|
--49----------57--57------49------|------57--57------49------57----|
--36--36--36--36--36--36--36--36--|--36--36--36--36--36--36--36----|
----------------------------------|--------------------------------|


   Q     E   E   E   E   E   S  S     E   E   E   S  S  E   E   E   S  S  
--------51--51--51--51--51--51----|--51--51--51--51----51--51--51--51----|
--------38--------------38--------|----------38----------------38--------|
----------------------------------|--------------------------------------|
--49------------------------------|--------------------------------------|
--36------------36-------------36-|--36-------------36-36-------------36-|
----------------------------------|--------------------------------------|


   E   E   E   E   E   E   E   S  S     E   E   E   S  S  E   E   E   S  S  
--51--51--51--51--51--51--51--51-46-|--42--51--51--51----51--51--51--------|
----------38--------------38--------|----------38----------------38--------|
------------------------------------|--------------------------------45-43-|
------------------------------------|--------------------------------------|
--36--------------36----------------|--36-------------36-36----------------|
------------------------------------|--------------------------------------|


   Q     E   E   E   E   E   E      E   E   E   E   Q     Q     
--------51--51--51--51--51--51--|------51--51--51--51----51----|
--------38--------------38------|----------38------------------|
--------------------------------|------------------------------|
--57----------------------------|--49--------------------------|
--36------------36--------------|--36--------------36----36----|
--------------------------------|------------------------------|


   E   E   E   E   E   E   E   E      E   E   E   E   E   E   Q     
----------------------------------|--------------------------------|
--38----------38----------38------|------38----------38------38----|
----------------------------------|--------------------------------|
--49----------57----------49------|------57----------49------49----|
--36--36--36--36--36--36--36--36--|--36--36--36--36--36--36--36----|
----------------------------------|--------------------------------|


   Riff A                                     
   Q      S  S  S  S  S  S  S  S  S  S  S  S  
--46-----42-42-42-42-42-42-42-42-42-42-42-42-|
---------------------------------------------|
---------------------------------------------|
---------------------------------------------|
--36-----36----------------------36----------|
---------------------------------------------|


   S  S  S  S  S  S  S  S  S  S  S  S  S  S  S  T  T  
--42-42-46--L-42-42-42-42-46--L-42-42-46--L-42-42-42-|
-----------------------------------------------------|
-----------------------------------------------------|
-----------------------------------------------------|
--------------36----------------------36-------------|
-----------------------------------------------------|


   S  S  S  S  S  S  S  S  S  S  S  S  S  S  S  S  
--46--L-42-42-42-42-46--L-42-42-42-42-46--L-42-42-|
--------------------------------------------------|
--------------------------------------------------|
--------------------------------------------------|
--------------36----------------------36----------|
--------------------------------------------------|


   S  S  S  S  S  S  S  S  Q     Q     
--42-42-46--L-42-42-42-42-46----------|
--------------------------------------|
--------------------------------------|
--------------------------------55----|
--------------36----------------36----|
--------------------------------------|


   E   S  S  S  S  S  S  S  S  S  S  S  S  S  S  
--42--42-42-42-42-46--L-42-42-42-42-46--L-42-42-|
------------------------------------------------|
------------------------------------------------|
------------------------------------------------|
--36--------------------36----------------------|
------------------------------------------------|


   S  S  S  S  S  S  S  S  S  S  S  S  S  S  S  T  T  
--42-42-46--L-42-42-42-42-46--L-42-42-46--L-42-42-42-|
-----------------------------------------------------|
-----------------------------------------------------|
-----------------------------------------------------|
--36----------------------36-------------------------|
-----------------------------------------------------|


   S  S  S  S  S  S  S  S  S  S  S  S  S  S  S  S  
--46--L-42-42-42-42-46--L-42-42-42-42-46--L-42-42-|
--------------------------------------------------|
--------------------------------------------------|
--------------------------------------------------|
--36----------------------36----------------------|
--------------------------------------------------|


   S  S  S  S  S  S  S  S  S  S  S  S  S  S  S  S  
--42-42-46--L-42-42-42-42-46--L-42-42-46--L-42-42-|
--------------------------------------------------|
--------------------------------------------------|
--------------------------------------------------|
--36----------------------36----------------------|
--------------------------------------------------|


   S  S  S  S  S  S  S  S  S  S  S  S  S  S  S  S  
-----42-42-42-42-42-46--L-42-42-42-42-46--L-42-42-|
--------------------------------------------------|
--------------------------------------------------|
--49----------------------------------------------|
--36----------------------36----------------------|
--------------------------------------------------|


                                                Outro                 
   S  S  S  S  S  S  S  S  S  S  S  S  Q        Q.      Q.      Q     
--42-42-46--L-42-42-42-42-46--L-42-42-46----|------------------------|
--------------------------------------------|------------------------|
--------------------------------------------|--57------55------57----|
--------------------------------------------|--49------57------49----|
--36----------------------36----------------|--36------36------36----|
--------------------------------------------|------------------------|


   E   Q.      E   E   Q     
----------------------46----|
----------------------38----|
------55------57--57--57----|
---L--49------49--49--49----|
---L--36------36--36--36----|
----------------------------|


           |--3--|  |--3--|  |--3--|  |--3--|  |--3--|  |--3--|  
   E   E   S  S  S  S  S  S  S  S  S  S  S  S  S  S  S  S  S  S  
---L--46--------------------------------------------------------|
------38--------------------------------------------------------|
---L--57--------------------------------------------------------|
---L--49--49-49-49-49-49-49-49-49-49-49-49-49-49-49-49-49-49-49-|
------36--------------------------------------------------------|
----------------------------------------------------------------|


   |--3--|  |--3--|  |--3--|  |--3--|  |--3--|  |--3--|  |--3--|  |--3--|  
   S  S  S  S  S  S  S  S  S  S  S  S  S  S  S  S  S  S  S  S  S  S  S  S  
--------------------------------------------------------------------------|
--------------------------------------------------------------------------|
--------------------------------------------------------------------------|
--49-49-49-49-49-49-49-49-49-49-49-49-49-49-49-49-49-49-49-49-49-49-49-49-|
--------------------------------------------------------------------------|
--------------------------------------------------------------------------|


   |--3--|  |--3--|  |--3--|  |--3--|                  
   S  S  S  S  S  S  S  S  S  S  S  S  E   E   E   E   
--------------------------------------51--51--51--59--|
------------------------------------------------------|
------------------------------------------------------|
--49-49-49-49-49-49-49-49-49-49-49-49-----------------|
------------------------------------------------------|
------------------------------------------------------|


             |--3--|  |--3--|         
   H         S  S  S  S  S  S  Q      
--59--------59-59-59-59-59-59-59----||
------------------------------------||
------------------------------------||
------------------------------------||
------------------------------------||
------------------------------------||



Drums Legend:
---------------
38...Snare
40...Electric Snare
36...Bass Drum
35...Acoustic Bass Drum
41...Low Floor Tom
43...High Floor Tom
45...Low Tom
47...Low-Mid Tom
48...Hi-Mid Tom

42...Closed Hi Hat
44...Pedal Hi Hat
46...Open Hi Hat
51...Ride Cymbal 1
59...Ride Cymbal 2
49...Crash Cymbal 1
52...Chinese Cymbal
55...Splash Cymbal
57...Crash Cymbal 2



Duration Legend
---------------
W - whole
H - half
Q - quarter
E - 8th
S - 16th
T - 32nd
X - 64th
. - note dotted
|-n-|  - n-tuplets


Tablature Legend
----------------
L - tied note
x - dead note
g - grace note
(n) - ghost note
> - accentuded note
NH - natural harmonic
AH - artificial harmonic
TH - tapped harmonic
SH - semi harmonic
PH - pitch harmonic
h - hammer on
p - pull off
b - bend
br - bendRelease
pb - preBend
pbr - preBendRelease
brb - bendReleaseBend
\n/ - tremolo bar dip
\n - tremolo bar dive
-/n - tremolo bar Release up
/n\ - tremolo bar inverted dip
/n - tremolo bar return
-\n - tremolo bar Release down
S - shift slide
s - legato slide
/ -  slide into from below or out of upwards
\ -  slide into from above or out of downwards
~ - vibrato
W - wide vibrato
tr - trill
TP - tremolo picking
T - tapping
S - slap
P - pop
< - fade in
^ - brush up
v - brush down

            
            
Suggest correction
Creating personal tab
Creating personal tab
You can edit any tab online and save it as your Personal.

You can edit, replace or remove any tab part or add personal notes – all changes will be seen only by you.

Personal tabs can be accessed anytime from any device, even offline.
Learn more »
comments
print report bad tab
guest
You may want to rate the tab now too:
select rating
Wanna post a correction for this tab? Suggest correction