Oops, an error
Loading. Please wait.

Weekend Warrior bass

version 1
version 1

Whole song

Interactive

1,256 views 1 this week
1 commentread comment
1 2 3 4 5
2 more votes to show rating
add to favorites
×
Save as Personal and add changes to this tab that will be seen only by you. Learn more ›
×
You can save this tab as Personal to edit and correct it or add notes. All changes will be seen only by you. Learn more »
launch autoscroll
font size
0
reset
guitar tuner
edit
Autoscroll
slow
fast
+/-
esc
set tempo
stop
Author
Difficulty
#-----------------------------------PLEASE NOTE------------------------------------#
#  This file is the author's own work and represents their interpretation of the   #
#  song. The owner of this website has not reviewed the contents of this file and  #
#  does not support copyright infringement or violating the rights of any artist   #
#  or legal entity. If you feel that the content of this file may be violating     #
#  copyright law, you may not use the information displayed here in any way.       #
#----------------------------------------------------------------------------------#

Iron Maiden
Fear of the Drak
Weekend warrior



this is the begging of the song, the acoustic guitar
(e-------------------------)
(B-------------------------)
(G------0-------0----------)
(D--7-----4-------5-----7--)
(A----7-------5-------5-5--)
(E-------------------------)
the bass starts to play in the 

Verse:

G--2--------------------------5-5-----|
D--2--------4---------5-5-----5-5-----|
A--0-0-0-0--4---------5-5-----3-3-----| x6
E-----------2-2-2-2---3-3-------------|

REST in the Guitar Refrain

repeat verse

REST in the G.R.

Chorus (x2):
   
G-------------7------------2-----------9----------|
D--3----------7------------2-----------9----------|
A--3----------5-5-5-5-5----0-0-0-0-0---7-7-7-7-7--|
E--1-1-1-1-1--------------------------------------|


G-------------7-----------------------------|
D--3----------7--------------5--5-4---5--4--|
A--3----------5-5-5-5-5------3--3-2---3--2--|
E--1-1-1-1-1--------------------------------|

G-------------7------------2-----------9----------|
D--3----------7------------2-----------9----------|
A--3----------5-5-5-5-5----0-0-0-0-0---7-7-7-7-7--|
E--1-1-1-1-1--------------------------------------|


G-------------7----------2-------------|
D--3----------7----------2-------------|
A--3----------5-5-5-5-5--0-0-0-0-0-----|
E--1-1-1-1-1---------------------------|


repeat verse


REST in the G.R.


repeat chorus


Guitar Solo 1 (x2):

G-----------------------------------------------------|
D--7-7-7-7---5-5-5-5---5-4---2-2-2-2---2-2-2-2--2--5--|
A--5-5-5-5---3-3-3-3---3-2---0-0-0-0---0-0-0-0--0--3--|
E-----------------------------------------------------|


G-----------------------------------------------------|
D--7-7-7-7---5-5-5-5---5-4-------------------------5--|
A--5-5-5-5---3-3-3-3---3-2---5-5-5-5---5-5-5-5--5--3--|
E----------------------------3-3-3-3---3-3-3-3--3-----|

Guitar Solo 2 (x2):

G-----------------------------------|--------------9--------|
D-----------------------------------|--------------9--------|
A--3-3-3-3-3-3-3-3-3-3-3-3-3-3-3-3--|--------------7--------|
E-----------------------------------|--0-0-0-0--------------|


G-----------------------------------|-----------9--------|
D-----------------------------------|--2--------7--------|
A--3-3-3-3-3-3-3-3-3-3-3-3-3-3-3-3--|--2-----------------|
E-----------------------------------|--0-----------------|

repeat Guitar solo 1

repeat guitar solo 2


Guitar Solo 3 (x2):

G--2---7------|--2---7-----7-7--5--|
D--2---7------|--2---7-----7-7--5--|
A--0---5------|--0---5-----5-5--3--|
E-------------|--------------------|


repeat verse


REST in the G.R.


repeat chorus

and that is the end of the song




anyhting wrong?
whpmanjak@yahoo.com





UP THE IRONS

            
            
Suggest correction
Creating personal tab
Creating personal tab
You can edit any tab online and save it as your Personal.

You can edit, replace or remove any tab part or add personal notes – all changes will be seen only by you.

Personal tabs can be accessed anytime from any device, even offline.
Learn more »
Give kudos to tab author, rate the tab!
1 2 3 4 5
comments
print report bad tab
1 comment total.
0 reply
basslovah 62 Jun 30, 2014 08:23 AM

Hi! Thanks for the work, accurate on the notes, but i think i can add something!

the bass also starts right at the beginning going along with the guitar:

G-------------------------|
D--7---5-4-----5-5----/7--|
A----7-------5------5-----|
E-------------------------|


CHORUS:

G----------------------------------------------|
D----------------------------------------------|
A---------5--5-5-0--0-0-0-0-0-0-0-------------|
E--1-1-1---------------------------------------|

G----------------------------------------------|
D----------------------------------------------|
A---------5--5-5-3--3-2-0-3-3-2-0-------------|
E--1-1-1---------------------------------------|


GUITAR SOLO 2, in which Steve also goes along with the guitar:

G--------------------------------------------------------------|
D------4-5---4-5---4-5---4---5-5-4-----------------------------|
A--3-3-----3-----3-----3---3-------7\------7----7---7-7-5-0-----|
E--------------------------------------0-0----0---0-------------|

G--------------------------------------------------------------|
D------4-5---4-5--5-5-7--5-4-----------------------------------|
A--3-3-----3-----------------7------7-----7----7---7-7-5-------|
E-------------------------------0-0---0-0----0---0--------------|

G--------------------------------------------------------------|
D------4-5---4-5---4-5---4---5-5-4-----------------------------|
A--3-3-----3-----3-----3---3-------7\------7----7---7-7-5-0-----|
E--------------------------------------0-0----0---0-------------|

G--------------------------------------------------------------|
D------4-5---4-5--4-5-7--5-4-----------------------------------|
A--3-3-----3-----------------7------7-----7----7---7-7-5-------|
E-------------------------------0-0---0-0----0---0--------------|


and in GUITAR SOLO 3 i haven't figured out that little lick Steve does yet, and it's the simplest lol

That's it. UP THE IRONS!!

guest
You may want to rate the tab now too:
select rating
Wanna post a correction for this tab? Suggest correction