Oops, an error
Loading. Please wait.

Wrathchild tab

version 5
version 5

Whole song

1,264 views 1 this week
no commentswrite comment
1 2 3 4 5
x 4
add to favorites
×
Save as Personal and add changes to this tab that will be seen only by you. Learn more ›
×
You can save this tab as Personal to edit and correct it or add notes. All changes will be seen only by you. Learn more »
launch autoscroll
font size
0
reset
how to read this tab
guitar tuner
backing track
0:00
0:00
edit
Autoscroll
slow
fast
+/-
esc
set tempo
stop
Author
Difficulty
About this tab version
Has all Instruments With Voice Melody. Was this info helpful? Yes No
                                  Wrathchild       
                             

                                  Iron Maiden

Instruments:
- G #1
- G #2
- G #3
- Voie Melody
- Chorus



Guitar #1:

Dave Murray

          Intro                                     
     S    W                   H.           E   E    
E||----|-------------------|-----------------------|
B||----|-------------------|-----------------------|
G||----|-------------------|-----------------------|
D||----|-------------------|-----------------------|
A||----|-------------------|-----------------------|
E||----|-------------------|------------------12\--|


  Riff A                                                              
  S      S S S Q    S  S S S Q       S  S S S Q    S S  S S S  S S S  
----------------------------------|----------------------------------|
----------------------------------|----------------------------------|
----------------------------------|----------------------------------|
--7s-----9-----9----7s-9-----9----|--7s-9-----9----5-5p-4-5-7p-5-4-0-|
--5s-----7-7-7-7----5s-7-7-7-7----|--5s-7-7-7-7----------------------|
----------------------------------|----------------------------------|


  S  S S S Q    S  S S S Q       S  S S S Q    S S  S S S  S S S  
------------------------------|----------------------------------|
------------------------------|----------------------------------|
------------------------------|----------------------------------|
--7s-9-----9----7s-9-----9----|--7s-9-----9----5-5p-4-5-7p-5-4-0-|
--5s-7-7-7-7----5s-7-7-7-7----|--5s-7-7-7-7----------------------|
------------------------------|----------------------------------|


  Verso Riff 1                                                                
  S            S S S E  E  S  S S S E  E     S  S S S Q    S S  S S S  S S S  
------------------------------------------|----------------------------------|
------------------------------------------|----------------------------------|
------------------------------------------|----------------------------------|
--7s-----------9-----9--9--7s-9-----9--9--|--7s-9-----9----5-5p-4-5-7p-5-4-0-|
--5s-----------7-7-7-7--7--5s-7-7-7-7--7--|--5s-7-7-7-7----------------------|
------------------------------------------|----------------------------------|


  S  S S S E  E  S  S S S E  E     S  S S S Q    S S  S S S  S S S  
--------------------------------|----------------------------------|
--------------------------------|----------------------------------|
--------------------------------|----------------------------------|
--7s-9-----9--9--7s-9-----9--9--|--7s-9-----9----5-5p-4-5-7p-5-4-0-|
--5s-7-7-7-7--7--5s-7-7-7-7--7--|--5s-7-7-7-7----------------------|
--------------------------------|----------------------------------|


  Verso Riff 2                                                                
  H            H           S  S S S E  E  S  S S S Q       H        H         
------------------------|-------------------------------|--------------------|
------------------------|-------------------------------|--------------------|
------------------------|-------------------------------|--------------------|
--5------------4--------|--7s-9-----9--9--7s-9-----9----|--5--------4--------|
--3------------2--------|--5s-7-7-7-7--7--5s-7-7-7-7----|--3--------2--------|
------------------------|-------------------------------|--------------------|


                                  Pre-Coro                                
  S  S S S E  E  S  S S S Q       H        H           H        H         
-------------------------------|--------------------|--------------------|
-------------------------------|--------------------|--------------------|
-------------------------------|--------------------|--------------------|
--7s-9-----9--9--7s-9-----9----|--5--------4--------|--------------------|
--5s-7-7-7-7--7--5s-7-7-7-7----|--3--------2--------|--5--------4--------|
-------------------------------|--------------------|--3--------2--------|


                       Riff A                           
  H        H           S      S S S Q    S  S S S Q     
--------------------|----------------------------------|
--------------------|----------------------------------|
--------------------|----------------------------------|
--5--------4--------|--7s-----9-----9----7s-9-----9----|
--3--------2--------|--5s-----7-7-7-7----5s-7-7-7-7----|
--------------------|----------------------------------|


  S  S S S Q    S S  S S S  S S S    S  S S S Q    S  S S S Q     
----------------------------------|------------------------------|
----------------------------------|------------------------------|
----------------------------------|------------------------------|
--7s-9-----9----5-5p-4-5-7p-5-4-0-|--7s-9-----9----7s-9-----9----|
--5s-7-7-7-7----------------------|--5s-7-7-7-7----5s-7-7-7-7----|
----------------------------------|------------------------------|


                                     Coro                            
  S  S S S Q    S S  S S S  S S S    S    S S S Q    S  S S E  S E   
----------------------------------|---------------------------------|
----------------------------------|---------------------------------|
----------------------------------|---------------------------------|
--7s-9-----9----5-5p-4-5-7p-5-4-0-|--7s---9-----9-------------------|
--5s-7-7-7-7----------------------|--5s---7-7-7-7----7p-5---5----5--|
----------------------------------|-----------------------7----7----|


  S  S S S Q    S  S S E  S E     S  S S S Q    S  S S E  S E   
-------------------------------|-------------------------------|
-------------------------------|-------------------------------|
-------------------------------|-------------------------------|
--7s-9-----9----5h-6-7---------|--7s-9-----9-------------------|
--5s-7-7-7-7-----------5----5--|--5s-7-7-7-7----7p-5---5----5--|
--------------------------7----|---------------------7----7----|


  Puente                                                         
  S      S S S E  S E  E  S E  E     S S S S E  S E  E  S E  E   
----------------------------------|-----------------------------|
----------------------------------|-----------------------------|
----------------------------------|-----------------------------|
----------------------------------|-----------------------------|
--3------3-3-3-3----3--3----3--3--|--5-5-5-5-5----5--5----5--5--|
------------------3-------3-------|-------------5-------5-------|


                                Solo Dave Murray                
                                                   SH           
  S  S S E  E  E  E  S E  E     H                  H            
-----------------------------|---------------------------------|
-----------------------------|---------------------------------|
-----------------------------|---------------------------------|
-----------------------------|--7b---------------<>7pb~--------|
--7p-5---5-----5-------------|---------------------------------|
-------7----7-----7--6-5--3--|---------------------------------|


  \1           tr              tr      tr                  
  H.           Q          Q    Q       Q        S  S  E    
-----------------------|--------------------------12------|
-----------------------|-----------------------------15b--|
---------------2(0)----|--L----7(0)----9(0)----12---------|
-----------------------|----------------------------------|
-----------------------|----------------------------------|
--0--------------------|----------------------------------|


      |---3---|         |---3--|                                               
  E   S   S   S  Q      S   S  S  E   Q        Q     Q      Q       E    E     
------------------------------12-----12b----|--L----12b----12pb----12b--12br--|
--L--12h-15p-12--------12h-15----15---------|---------------------------------|
----------------14b-------------------------|---------------------------------|
--------------------------------------------|---------------------------------|
--------------------------------------------|---------------------------------|
--------------------------------------------|---------------------------------|


       |---3---|  |---3---|   |---3---|                    
   E   S   S   S  S   S   S   S   S   S S  S  S  S  Q      
---L-----------------------------------------14-17-17b----|
------15h-17p-15-14h-15p-14h-15p-14h-15-L-17--------------|
----------------------------------------------------------|
----------------------------------------------------------|
----------------------------------------------------------|
----------------------------------------------------------|


   Q        E    Q       S  E.    S   S  
--17pb~----17b--17pb-------19b---19p-18-|
------------------------17--------------|
----------------------------------------|
----------------------------------------|
----------------------------------------|
----------------------------------------|


   |---3---|  |---3---|                            
   S   S   S  S   S   S  E    E     Q      E   E   
--17h-18p-17-15h-17p-15-15b--15pb--15b----15S--x--|
--------------------------------------------------|
--------------------------------------------------|
--------------------------------------------------|
--------------------------------------------------|
--------------------------------------------------|


  Puente                                                         
  S      S S S E  S E  E  S E  E     S S S S E  S E  E  S E  E   
----------------------------------|-----------------------------|
----------------------------------|-----------------------------|
----------------------------------|-----------------------------|
----------------------------------|-----------------------------|
--3------3-3-3-3----3--3----3--3--|--5-5-5-5-5----5--5----5--5--|
------------------3-------3-------|-------------5-------5-------|


  S  S S E  E  E  E  S E  E     H         
-----------------------------|-----------|
-----------------------------|-----------|
-----------------------------|-----------|
-----------------------------|-----------|
--7p-5---5-----5-------------|-----------|
-------7----7-----7--6-5--3--|-----------|


          Riff B                                    
    PM PM        PM PM PM   PM PM PM PM PM PM PM    
    S  S  S      S  S  S  S S  S  S  S  S  S  E  S  
|--------------------------------------------------|
|--------------------------------------------------|
|*-------------------------------------------------|
|*-------------------------------------------------|
|-------------------5----------5-------------------|
|---7--7---------7-----7----7-----7--6--5--3--0----|


  PM PM   PM PM PM   PM PM PM PM PM PM PM      
  S  S  S S  S  S  S S  S  S  S  S  S  E  S    
---------------------------------------------||
---------------------------------------------||
--------------------------------------------*||
--------------------------------------------*||
-------------5----------5--------------------||
--7--7----7-----7----7-----7--6--5--3--0-----||


   PM PM   PM PM PM   PM PM PM PM PM PM PM      
   S  S  S S  S  S  S S  S  S  S  S  S  E  S    
----------------------------------------------||
----------------------------------------------||
*--------------------------------------------*||
*-------------2----------2-------------------*||
---4--4----4-----4----4-----4--3--2--0--------||
----------------------------------------2-----||


   PM PM   PM PM PM   PM PM PM PM PM PM PM                                    
   S  S  S S  S  S  S S  S  S  S  S  S  E  S      S  S S E  E  E  E  S E  E   
----------------------------------------------||-----------------------------|
----------------------------------------------||-----------------------------|
*--------------------------------------------*||-----------------------------|
*-------------3----------3-------------------*||-----------------------------|
---5--5----5-----5----5-----5--4--3--1--------||--7p-5---5-----5-------------|
----------------------------------------3-----||-------7----7-----7--6-5--3--|


  Riff A                                                              
  S      S S S Q    S  S S S Q       S  S S S Q    S S  S S S  S S S  
----------------------------------|----------------------------------|
----------------------------------|----------------------------------|
----------------------------------|----------------------------------|
--7s-----9-----9----7s-9-----9----|--7s-9-----9----5-5p-4-5-7p-5-4-0-|
--5s-----7-7-7-7----5s-7-7-7-7----|--5s-7-7-7-7----------------------|
----------------------------------|----------------------------------|


  S  S S S Q    S  S S S Q       S  S S S Q    S S  S S S  S S S  
------------------------------|----------------------------------|
------------------------------|----------------------------------|
------------------------------|----------------------------------|
--7s-9-----9----7s-9-----9----|--7s-9-----9----5-5p-4-5-7p-5-4-0-|
--5s-7-7-7-7----5s-7-7-7-7----|--5s-7-7-7-7----------------------|
------------------------------|----------------------------------|


  Verso Riff 1                                                                
  S            S S S E  E  S  S S S E  E     S  S S S Q    S S  S S S  S S S  
------------------------------------------|----------------------------------|
------------------------------------------|----------------------------------|
------------------------------------------|----------------------------------|
--7s-----------9-----9--9--7s-9-----9--9--|--7s-9-----9----5-5p-4-5-7p-5-4-0-|
--5s-----------7-7-7-7--7--5s-7-7-7-7--7--|--5s-7-7-7-7----------------------|
------------------------------------------|----------------------------------|


  S  S S S E  E  S  S S S E  E     S  S S S Q    S S  S S S  S S S  
--------------------------------|----------------------------------|
--------------------------------|----------------------------------|
--------------------------------|----------------------------------|
--7s-9-----9--9--7s-9-----9--9--|--7s-9-----9----5-5p-4-5-7p-5-4-0-|
--5s-7-7-7-7--7--5s-7-7-7-7--7--|--5s-7-7-7-7----------------------|
--------------------------------|----------------------------------|


  Verso Riff 2                                                                
  H            H           S  S S S E  E  S  S S S Q       H        H         
------------------------|-------------------------------|--------------------|
------------------------|-------------------------------|--------------------|
------------------------|-------------------------------|--------------------|
--5------------4--------|--7s-9-----9--9--7s-9-----9----|--5--------4--------|
--3------------2--------|--5s-7-7-7-7--7--5s-7-7-7-7----|--3--------2--------|
------------------------|-------------------------------|--------------------|


                                  Pre-Coro                                
  S  S S S E  E  S  S S S Q       H        H           H        H         
-------------------------------|--------------------|--------------------|
-------------------------------|--------------------|--------------------|
-------------------------------|--------------------|--------------------|
--7s-9-----9--9--7s-9-----9----|--5--------4--------|--------------------|
--5s-7-7-7-7--7--5s-7-7-7-7----|--3--------2--------|--5--------4--------|
-------------------------------|--------------------|--3--------2--------|


                       Riff A                           
  H        H           S      S S S Q    S  S S S Q     
--------------------|----------------------------------|
--------------------|----------------------------------|
--------------------|----------------------------------|
--5--------4--------|--7s-----9-----9----7s-9-----9----|
--3--------2--------|--5s-----7-7-7-7----5s-7-7-7-7----|
--------------------|----------------------------------|


  S  S S S Q    S S  S S S  S S S    S  S S S Q    S  S S S Q     
----------------------------------|------------------------------|
----------------------------------|------------------------------|
----------------------------------|------------------------------|
--7s-9-----9----5-5p-4-5-7p-5-4-0-|--7s-9-----9----7s-9-----9----|
--5s-7-7-7-7----------------------|--5s-7-7-7-7----5s-7-7-7-7----|
----------------------------------|------------------------------|


                                     Coro                            
  S  S S S Q    S S  S S S  S S S    S    S S S Q    S  S S E  S E   
----------------------------------|---------------------------------|
----------------------------------|---------------------------------|
----------------------------------|---------------------------------|
--7s-9-----9----5-5p-4-5-7p-5-4-0-|--7s---9-----9-------------------|
--5s-7-7-7-7----------------------|--5s---7-7-7-7----7p-5---5----5--|
----------------------------------|-----------------------7----7----|


  S  S S S Q    S  S S E  S E     S  S S S Q    S  S S E  S E   
-------------------------------|-------------------------------|
-------------------------------|-------------------------------|
-------------------------------|-------------------------------|
--7s-9-----9----5h-6-7---------|--7s-9-----9-------------------|
--5s-7-7-7-7-----------5----5--|--5s-7-7-7-7----7p-5---5----5--|
--------------------------7----|---------------------7----7----|


  Puente                                                         
  S      S S S E  S E  E  S E  E     S S S S E  S E  E  S E  E   
----------------------------------|-----------------------------|
----------------------------------|-----------------------------|
----------------------------------|-----------------------------|
----------------------------------|-----------------------------|
--3------3-3-3-3----3--3----3--3--|--5-5-5-5-5----5--5----5--5--|
------------------3-------3-------|-------------5-------5-------|


    Outro                                                          
    S     S S E  E  E  E  S E  E       S  S S E  E  E  E  S E  E   
|----------------------------------||-----------------------------|
|----------------------------------||-----------------------------|
|*--------------------------------*||--9p-7---7-----7-------------|
|*--------------------------------*||-------9----9-----9--8-7--5--|
|---7p----5---5-----5--------------||-----------------------------|
|-----------7----7-----7--6-5--3---||-----------------------------|


  Q     H.             
---------------------||
---------------------||
--9\-----------------||
--9\-----------------||
--7\-----------------||
---------------------||




Guitar #2:
                                  
Adrian Smith

          Intro                                 
     S    W                   W                 
E||----|-------------------|-------------------|
B||----|-------------------|-------------------|
G||----|-------------------|-------------------|
D||----|-------------------|-------------------|
A||----|-------------------|-------------------|
E||----|-------------------|-------------------|


   Riff A                                                        
   Q      H           E      S   S     H          Q     E.    S  
-----------------------------------|------------------------/15-|
--15b----15pb--------15pbr--15p-12-|----------------------------|
-----------------------------------|--12~---------L\------------|
-----------------------------------|----------------------------|
-----------------------------------|----------------------------|
-----------------------------------|----------------------------|


   Q      H            E   S   S     Q      E   E.   S Q.      
--15b----15pbr---------L---------|----------------------------|
---------------------------------|----------------------------|
--------------------------12h-14-|--12~-----------------------|
---------------------------------|---------14---L\------------|
---------------------------------|----------------------------|
---------------------------------|----------------------------|


  Verso Riff 1                                                              
  S            S S S Q    S  S S S Q       S  S S S Q    S S  S S S  S S S  
----------------------------------------|----------------------------------|
----------------------------------------|----------------------------------|
----------------------------------------|----------------7-7p-6-7-9p-7-6---|
--7s-----------9-----9----7s-9-----9----|--7s-9-----9--------------------7-|
--5s-----------7-7-7-7----5s-7-7-7-7----|--5s-7-7-7-7----------------------|
----------------------------------------|----------------------------------|


  S  S S S Q    S  S S S Q       S  S S S Q    S S  S S S  S S S  
------------------------------|----------------------------------|
------------------------------|----------------------------------|
------------------------------|----------------7-7p-6-7-9p-7-6---|
--7s-9-----9----7s-9-----9----|--7s-9-----9--------------------7-|
--5s-7-7-7-7----5s-7-7-7-7----|--5s-7-7-7-7----------------------|
------------------------------|----------------------------------|


  Verso Riff 2                                                               
  H            H           H         Q      S   S  E      H        H         
------------------------|------------------------------|--------------------|
------------------------|------------------------------|--------------------|
------------------------|-----------14b----12h-14-12~--|--L-----------------|
--5------------4--------|------------------------------|--------------------|
--3------------2--------|------------------------------|--------------------|
------------------------|------------------------------|--------------------|


                                       Pre-Coro                                
   S  S  Q     S S  S   S    Q.        H        H           H        H         
-----15b-L----12--------------------|--------------------|--------------------|
--12---------------15b-15pb--L------|--------------------|--------------------|
------------------------------------|--------------------|--------------------|
------------------------------------|--5--------4--------|--------------------|
------------------------------------|--3--------2--------|--5--------4--------|
------------------------------------|--------------------|--3--------2--------|


  H        H         
--------------------|
--------------------|
--------------------|
--5--------4--------|
--3--------2--------|
--------------------|


  Riff A                                                                 
           SH     SH     SH     SH     SH     SH     SH     SH     SH    
           |------3------|      |------3------|      |------3------|     
  Q        E      E      E      E      E      E      E      E      E     
------------------------------------------------------------------------|
------------------------------------------------------------------------|
--2b-----<>2pb--<>2pb--<>2pb--<>2pb--<>2pb--<>2pb--<>2pb--<>2pb--<>2pb--|
------------------------------------------------------------------------|
------------------------------------------------------------------------|
------------------------------------------------------------------------|


    SH     SH     SH     SH     SH     SH              
    |------3------|      |------3------|               
    E      E      E      E      E      E    Q.     E   
------------------------------------------------------|
------------------------------------------------------|
--<>2pb--<>2pb--<>2pb--<>2pb--<>2pb--<>2pb------------|
--------------------------------------------2---------|
------------------------------------------------------|
------------------------------------------------------|


  E.   S  H          E   S  S     H         H         
------------------------------|----------------------|
------12-15b---------L--------|----------------------|
------------------------12-14-|--12~-----------------|
------------------------------|----------------------|
------------------------------|----------------------|
------------------------------|----------------------|


  Coro                                                          
  S    S E  Q    S  S S E  S E     S  S E  Q    S  S S E  S E   
--------------------------------|------------------------------|
--------------------------------|------------------------------|
--------------------------------|---------------7h-8-9---------|
--7s---9----9----9p-7---7----7--|--7s-9----9-----------7----7--|
--5s---7-7--7---------9----9----|--5s-7-7--7--------------9----|
--------------------------------|------------------------------|


                                 Puente                           
  S  S E  Q    S  S S E  S E     S      S S S E  S E  E  S E  E   
------------------------------|----------------------------------|
------------------------------|----------------------------------|
------------------------------|----------------------------------|
--7s-9----9----9p-7---7----7--|--5------5-5-5-5----5--5----5--5--|
--5s-7-7--7---------9----9----|--3------3-3-3-3----3--3----3--3--|
------------------------------|------------------3-------3-------|


  S S S S E  S E  E  S E  E     S  S S E  E  E  E  S E  E   
-----------------------------|-----------------------------|
-----------------------------|-----------------------------|
-----------------------------|-----------------------------|
--7-7-7-7-7----7--7----7--7--|--9p-7---7-----7-------------|
--5-5-5-5-5----5--5----5--5--|-------9----9-----9--8-7--5--|
-------------5-------5-------|-----------------------------|


  Solo Dave Murray                                                              
  S                S S S Q    S  S S S Q       S  S S S Q    S S  S S S  S S S  
--------------------------------------------|----------------------------------|
--------------------------------------------|----------------------------------|
--------------------------------------------|----------------7-7p-6-7-9p-7-6---|
--7s---------------9-----9----7s-9-----9----|--7s-9-----9--------------------7-|
--5s---------------7-7-7-7----5s-7-7-7-7----|--5s-7-7-7-7----------------------|
--------------------------------------------|----------------------------------|


  S  S S S Q    S  S S S Q       S  S S S Q    S S  S S S  S S S  
------------------------------|----------------------------------|
------------------------------|----------------------------------|
------------------------------|----------------7-7p-6-7-9p-7-6---|
--7s-9-----9----7s-9-----9----|--7s-9-----9--------------------7-|
--5s-7-7-7-7----5s-7-7-7-7----|--5s-7-7-7-7----------------------|
------------------------------|----------------------------------|


  S  S S S Q    S  S S S Q       S  S S S Q    S S  S S S  S S S  
------------------------------|----------------------------------|
------------------------------|----------------------------------|
------------------------------|----------------7-7p-6-7-9p-7-6---|
--7s-9-----9----7s-9-----9----|--7s-9-----9--------------------7-|
--5s-7-7-7-7----5s-7-7-7-7----|--5s-7-7-7-7----------------------|
------------------------------|----------------------------------|


  S  S S S Q    S  S S S Q       S  S S S Q    S S  S S S  S S S  
------------------------------|----------------------------------|
------------------------------|----------------------------------|
------------------------------|----------------7-7p-6-7-9p-7-6---|
--7s-9-----9----7s-9-----9----|--7s-9-----9--------------------7-|
--5s-7-7-7-7----5s-7-7-7-7----|--5s-7-7-7-7----------------------|
------------------------------|----------------------------------|


  Puente                                                         
  S      S S S E  S E  E  S E  E     S S S S E  S E  E  S E  E   
----------------------------------|-----------------------------|
----------------------------------|-----------------------------|
----------------------------------|-----------------------------|
--5------5-5-5-5----5--5----5--5--|--7-7-7-7-7----7--7----7--7--|
--3------3-3-3-3----3--3----3--3--|--5-5-5-5-5----5--5----5--5--|
------------------3-------3-------|-------------5-------5-------|


  S  S S E  E  E  E  S E  E     H         
-----------------------------|-----------|
-----------------------------|-----------|
-----------------------------|-----------|
--9p-7---7-----7-------------|-----------|
-------9----9-----9--8-7--5--|-----------|
-----------------------------|-----------|


    Riff B                                         
    PM     PM   PM PM PM   PM PM PM PM PM PM PM    
    S      S  S S  S  S  S S  S  S  S  S  S  E  S  
|-------------------------------------------------|
|-------------------------------------------------|
|*------------------------------------------------|
|*------------------------------------------------|
|------------------5----------5-------------------|
|---7------7----7-----7----7-----7--6--5--3--0----|


  PM PM   PM PM PM   PM PM PM PM PM PM PM      
  S  S  S S  S  S  S S  S  S  S  S  S  E  S    
---------------------------------------------||
---------------------------------------------||
--------------------------------------------*||
--------------------------------------------*||
-------------5----------5--------------------||
--7--7----7-----7----7-----7--6--5--3--0-----||


   PM PM   PM PM PM   PM PM PM PM PM PM PM      
   S  S  S S  S  S  S S  S  S  S  S  S  E  S    
----------------------------------------------||
----------------------------------------------||
*--------------------------------------------*||
*-------------2----------2-------------------*||
---4--4----4-----4----4-----4--3--2--0--------||
----------------------------------------2-----||


   PM PM   PM PM PM   PM PM PM PM PM PM PM                                    
   S  S  S S  S  S  S S  S  S  S  S  S  E  S      S  S S E  E  E  E  S E  E   
----------------------------------------------||-----------------------------|
----------------------------------------------||-----------------------------|
*--------------------------------------------*||-----------------------------|
*-------------3----------3-------------------*||--9p-7---7-----7-------------|
---5--5----5-----5----5-----5--4--3--1--------||-------9----9-----9--8-7--5--|
----------------------------------------3-----||-----------------------------|


  Riff A                                                              
  S      S S S Q    S  S S S Q       S  S S S Q    S S  S S S  S S S  
----------------------------------|----------------------------------|
----------------------------------|----------------------------------|
----------------------------------|----------------7-7p-6-7-9p-7-6---|
--7s-----9-----9----7s-9-----9----|--7s-9-----9--------------------7-|
--5s-----7-7-7-7----5s-7-7-7-7----|--5s-7-7-7-7----------------------|
----------------------------------|----------------------------------|


  S  S S S Q    S  S S S Q       S  S S S Q    S S  S S S  S S S  
------------------------------|----------------------------------|
------------------------------|----------------------------------|
------------------------------|----------------7-7p-6-7-9p-7-6---|
--7s-9-----9----7s-9-----9----|--7s-9-----9--------------------7-|
--5s-7-7-7-7----5s-7-7-7-7----|--5s-7-7-7-7----------------------|
------------------------------|----------------------------------|


  Verso Riff 1                                                              
  S            S S S Q    S  S S S Q       S  S S S Q    S S  S S S  S S S  
----------------------------------------|----------------------------------|
----------------------------------------|----------------------------------|
----------------------------------------|----------------7-7p-6-7-9p-7-6---|
--7s-----------9-----9----7s-9-----9----|--7s-9-----9--------------------7-|
--5s-----------7-7-7-7----5s-7-7-7-7----|--5s-7-7-7-7----------------------|
----------------------------------------|----------------------------------|


  S  S S S Q    S  S S S Q       S  S S S Q    S S  S S S  S S S  
------------------------------|----------------------------------|
------------------------------|----------------------------------|
------------------------------|----------------7-7p-6-7-9p-7-6---|
--7s-9-----9----7s-9-----9----|--7s-9-----9--------------------7-|
--5s-7-7-7-7----5s-7-7-7-7----|--5s-7-7-7-7----------------------|
------------------------------|----------------------------------|


  Verso Riff 2                                                               
  H            H           S  S S S Q    S  S S S Q       H        H         
------------------------|------------------------------|--------------------|
------------------------|------------------------------|--------------------|
------------------------|------------------------------|--------------------|
--5------------4--------|--7s-9-----9----7s-9-----9----|--5--------4--------|
--3------------2--------|--5s-7-7-7-7----5s-7-7-7-7----|--3--------2--------|
------------------------|------------------------------|--------------------|


                                 Pre-Coro                                
  S  S S S Q    S  S S S Q       H        H           H        H         
------------------------------|--------------------|--------------------|
------------------------------|--------------------|--------------------|
------------------------------|--------------------|--------------------|
--7s-9-----9----7s-9-----9----|--5--------4--------|--------------------|
--5s-7-7-7-7----5s-7-7-7-7----|--3--------2--------|--5--------4--------|
------------------------------|--------------------|--3--------2--------|


                       Riff A                           
  H        H           S      S S S Q    S  S S S Q     
--------------------|----------------------------------|
--------------------|----------------------------------|
--------------------|----------------------------------|
--5--------4--------|--7s-----9-----9----7s-9-----9----|
--3--------2--------|--5s-----7-7-7-7----5s-7-7-7-7----|
--------------------|----------------------------------|


  S  S S S Q    S S  S S S  S S S    S  S S S Q    S  S S S Q     
----------------------------------|------------------------------|
----------------------------------|------------------------------|
----------------7-7p-6-7-9p-7-6---|------------------------------|
--7s-9-----9--------------------7-|--7s-9-----9----7s-9-----9----|
--5s-7-7-7-7----------------------|--5s-7-7-7-7----5s-7-7-7-7----|
----------------------------------|------------------------------|


                                     Coro                           
  S  S S S Q    S S  S S S  S S S    S    S E  Q    S  S S E  S E   
----------------------------------|--------------------------------|
----------------------------------|--------------------------------|
----------------7-7p-6-7-9p-7-6---|--------------------------------|
--7s-9-----9--------------------7-|--7s---9----9----9p-7---7----7--|
--5s-7-7-7-7----------------------|--5s---7-7--7---------9----9----|
----------------------------------|--------------------------------|


  S  S E  Q    S  S S E  S E     S  S E  Q    S  S S E  S E   
------------------------------|------------------------------|
------------------------------|------------------------------|
---------------7h-8-9---------|------------------------------|
--7s-9----9-----------7----7--|--7s-9----9----9p-7---7----7--|
--5s-7-7--7--------------9----|--5s-7-7--7---------9----9----|
------------------------------|------------------------------|


  Puente                                                         
  S      S S S E  S E  E  S E  E     S S S S E  S E  E  S E  E   
----------------------------------|-----------------------------|
----------------------------------|-----------------------------|
----------------------------------|-----------------------------|
--5------5-5-5-5----5--5----5--5--|--7-7-7-7-7----7--7----7--7--|
--3------3-3-3-3----3--3----3--3--|--5-5-5-5-5----5--5----5--5--|
------------------3-------3-------|-------------5-------5-------|


    Outro                                                          
    S     S S E  E  E  E  S E  E       S  S S E  E  E  E  S E  E   
|----------------------------------||-----------------------------|
|----------------------------------||-----------------------------|
|*--------------------------------*||-----------------------------|
|*--9p----7---7-----7-------------*||--9p-7---7-----7-------------|
|-----------9----9-----9--8-7--5---||-------9----9-----9--8-7--5--|
|----------------------------------||-----------------------------|


  Q     H.             
---------------------||
---------------------||
---------------------||
--2\-----------------||
--2\-----------------||
--0\-----------------||




Guitar #3:
                                  
Janick Gers

          Intro                                     
     S    W                   H.           E   E    
E||----|-------------------|-----------------------|
B||----|-------------------|-----------------------|
G||----|-------------------|-----------------------|
D||----|-------------------|-----------------------|
A||----|-------------------|-----------------------|
E||----|-------------------|------------------12\--|


  Riff A                                                              
  S      S S S Q    S  S S S Q       S  S S S Q    S S  S S S  S S S  
----------------------------------|----------------------------------|
----------------------------------|----------------------------------|
----------------------------------|----------------------------------|
--7s-----9-----9----7s-9-----9----|--7s-9-----9----5-5p-4-5-7p-5-4---|
--5s-----7-7-7-7----5s-7-7-7-7----|--5s-7-7-7-7--------------------5-|
----------------------------------|----------------------------------|


  S  S S S Q    S  S S S Q       S  S S S Q    S S  S S S  S S S  
------------------------------|----------------------------------|
------------------------------|----------------------------------|
------------------------------|----------------------------------|
--7s-9-----9----7s-9-----9----|--7s-9-----9----5-5p-4-5-7p-5-4---|
--5s-7-7-7-7----5s-7-7-7-7----|--5s-7-7-7-7--------------------5-|
------------------------------|----------------------------------|


  Verso Riff 1                                                                
  S            S S S E  E  S  S S S E  E     S  S S S Q    S S  S S S  S S S  
------------------------------------------|----------------------------------|
------------------------------------------|----------------------------------|
------------------------------------------|----------------------------------|
--7s-----------9-----9--9--7s-9-----9--9--|--7s-9-----9----5-5p-4-5-7p-5-4---|
--5s-----------7-7-7-7--7--5s-7-7-7-7--7--|--5s-7-7-7-7--------------------5-|
------------------------------------------|----------------------------------|


  S  S S S E  E  S  S S S E  E     S  S S S Q    S S  S S S  S S S  
--------------------------------|----------------------------------|
--------------------------------|----------------------------------|
--------------------------------|----------------------------------|
--7s-9-----9--9--7s-9-----9--9--|--7s-9-----9----5-5p-4-5-7p-5-4---|
--5s-7-7-7-7--7--5s-7-7-7-7--7--|--5s-7-7-7-7--------------------5-|
--------------------------------|----------------------------------|


  Verso Riff 2                                                                
  H            H           S  S S S E  E  S  S S S Q       H        H         
------------------------|-------------------------------|--------------------|
------------------------|-------------------------------|--------------------|
------------------------|-------------------------------|--------------------|
--5------------4--------|--7s-9-----9--9--7s-9-----9----|--5--------4--------|
--3------------2--------|--5s-7-7-7-7--7--5s-7-7-7-7----|--3--------2--------|
------------------------|-------------------------------|--------------------|


                                  Pre-Coro                                
  S  S S S E  E  S  S S S Q       H        H           H        H         
-------------------------------|--------------------|--------------------|
-------------------------------|--------------------|--------------------|
-------------------------------|--------------------|--------------------|
--7s-9-----9--9--7s-9-----9----|--5--------4--------|--------------------|
--5s-7-7-7-7--7--5s-7-7-7-7----|--3--------2--------|--5--------4--------|
-------------------------------|--------------------|--3--------2--------|


                       Riff A                           
  H        H           S      S S S Q    S  S S S Q     
--------------------|----------------------------------|
--------------------|----------------------------------|
--------------------|----------------------------------|
--5--------4--------|--7s-----9-----9----7s-9-----9----|
--3--------2--------|--5s-----7-7-7-7----5s-7-7-7-7----|
--------------------|----------------------------------|


  S  S S S Q    S S  S S S  S S S    S  S S S Q    S  S S S Q     
----------------------------------|------------------------------|
----------------------------------|------------------------------|
----------------------------------|------------------------------|
--7s-9-----9----5-5p-4-5-7p-5-4---|--7s-9-----9----7s-9-----9----|
--5s-7-7-7-7--------------------5-|--5s-7-7-7-7----5s-7-7-7-7----|
----------------------------------|------------------------------|


                                     Coro                            
  S  S S S Q    S S  S S S  S S S    S    S S S Q    S  S S E  S E   
----------------------------------|---------------------------------|
----------------------------------|---------------------------------|
----------------------------------|---------------------------------|
--7s-9-----9----5-5p-4-5-7p-5-4---|--7s---9-----9-------------------|
--5s-7-7-7-7--------------------5-|--5s---7-7-7-7----7p-5---5----5--|
----------------------------------|-----------------------7----7----|


  S  S S S Q    S  S S E  S E     S  S S S Q    S  S S E  S E   
-------------------------------|-------------------------------|
-------------------------------|-------------------------------|
-------------------------------|-------------------------------|
--7s-9-----9----5h-6-7---------|--7s-9-----9-------------------|
--5s-7-7-7-7-----------5----5--|--5s-7-7-7-7----7p-5---5----5--|
--------------------------7----|---------------------7----7----|


  Puente                                                         
  S      S S S E  S E  E  S E  E     S S S S E  S E  E  S E  E   
----------------------------------|-----------------------------|
----------------------------------|-----------------------------|
----------------------------------|-----------------------------|
----------------------------------|-----------------------------|
--3------3-3-3-3----3--3----3--3--|--5-5-5-5-5----5--5----5--5--|
------------------3-------3-------|-------------5-------5-------|


                                Solo Dave Murray                             
  S  S S E  E  E  E  S E  E     S                S S S E  E  S  S S S E  E   
-----------------------------|----------------------------------------------|
-----------------------------|----------------------------------------------|
-----------------------------|----------------------------------------------|
-----------------------------|--7s---------------9-----9--9--7s-9-----9--9--|
--7p-5---5-----5-------------|--5s---------------7-7-7-7--7--5s-7-7-7-7--7--|
-------7----7-----7--6-5--3--|----------------------------------------------|


  S  S S S Q    S S  S S S  S S S    S  S S S E  E  S  S S S E  E   
----------------------------------|--------------------------------|
----------------------------------|--------------------------------|
----------------------------------|--------------------------------|
--7s-9-----9----5-5p-4-5-7p-5-4---|--7s-9-----9--9--7s-9-----9--9--|
--5s-7-7-7-7--------------------5-|--5s-7-7-7-7--7--5s-7-7-7-7--7--|
----------------------------------|--------------------------------|


  S  S S S Q    S S  S S S  S S S    S  S S S E  E  S  S S S E  E   
----------------------------------|--------------------------------|
----------------------------------|--------------------------------|
----------------------------------|--------------------------------|
--7s-9-----9----5-5p-4-5-7p-5-4---|--7s-9-----9--9--7s-9-----9--9--|
--5s-7-7-7-7--------------------5-|--5s-7-7-7-7--7--5s-7-7-7-7--7--|
----------------------------------|--------------------------------|


  S  S S S Q    S S  S S S  S S S    S  S S S E  E  S  S S S E  E   
----------------------------------|--------------------------------|
----------------------------------|--------------------------------|
----------------------------------|--------------------------------|
--7s-9-----9----5-5p-4-5-7p-5-4---|--7s-9-----9--9--7s-9-----9--9--|
--5s-7-7-7-7--------------------5-|--5s-7-7-7-7--7--5s-7-7-7-7--7--|
----------------------------------|--------------------------------|


                                     Puente                           
  S  S S S Q    S S  S S S  S S S    S      S S S E  S E  E  S E  E   
----------------------------------|----------------------------------|
----------------------------------|----------------------------------|
----------------------------------|----------------------------------|
--7s-9-----9----5-5p-4-5-7p-5-4---|----------------------------------|
--5s-7-7-7-7--------------------5-|--3------3-3-3-3----3--3----3--3--|
----------------------------------|------------------3-------3-------|


  S S S S E  S E  E  S E  E     S  S S E  E  E  E  S E  E     H         
-----------------------------|-----------------------------|-----------|
-----------------------------|-----------------------------|-----------|
-----------------------------|-----------------------------|-----------|
-----------------------------|-----------------------------|-----------|
--5-5-5-5-5----5--5----5--5--|--7p-5---5-----5-------------|-----------|
-------------5-------5-------|-------7----7-----7--6-5--3--|-----------|


    Riff B                                         
    PM     PM   PM PM PM   PM PM PM PM PM PM PM    
    S      S  S S  S  S  S S  S  S  S  S  S  E  S  
|-------------------------------------------------|
|-------------------------------------------------|
|*------------------------------------------------|
|*------------------------------------------------|
|------------------5----------5-------------------|
|---7------7----7-----7----7-----7--6--5--3--0----|


  PM PM   PM PM PM   PM PM PM PM PM PM PM      
  S  S  S S  S  S  S S  S  S  S  S  S  E  S    
---------------------------------------------||
---------------------------------------------||
--------------------------------------------*||
--------------------------------------------*||
-------------5----------5--------------------||
--7--7----7-----7----7-----7--6--5--3--0-----||


   PM PM   PM PM PM   PM PM PM PM PM PM PM      
   S  S  S S  S  S  S S  S  S  S  S  S  E  S    
----------------------------------------------||
----------------------------------------------||
*--------------------------------------------*||
*-------------2----------2-------------------*||
---4--4----4-----4----4-----4--3--2--0--------||
----------------------------------------2-----||


   PM PM   PM PM PM   PM PM PM PM PM PM PM                                    
   S  S  S S  S  S  S S  S  S  S  S  S  E  S      S  S S E  E  E  E  S E  E   
----------------------------------------------||-----------------------------|
----------------------------------------------||-----------------------------|
*--------------------------------------------*||-----------------------------|
*-------------3----------3-------------------*||-----------------------------|
---5--5----5-----5----5-----5--4--3--1--------||--7p-5---5-----5-------------|
----------------------------------------3-----||-------7----7-----7--6-5--3--|


  Riff A                                                                
  H.            E  E       H.            Q        H          H          
------------------------|---------------------|------------------------|
------------------------|---------------------|------------------------|
--7b------------L--7br--|--7b-----------------|--14b--------12~--------|
------------------------|---------------------|------------------------|
------------------------|---------------------|------------------------|
------------------------|---------------------|------------------------|


                                       Verso Riff 1                             
   Q      Q       S  S  S  S   Q       S            S S S E  E  S  S S S E  E   
------------------------------------|------------------------------------------|
--15b----15pb----15-12--------------|------------------------------------------|
-----------------------15-12~--L----|------------------------------------------|
------------------------------------|--7s-----------9-----9--9--7s-9-----9--9--|
------------------------------------|--5s-----------7-7-7-7--7--5s-7-7-7-7--7--|
------------------------------------|------------------------------------------|


  S  S S S Q    S S  S S S  S S S    S  S S S E  E  S  S S S E  E   
----------------------------------|--------------------------------|
----------------------------------|--------------------------------|
----------------------------------|--------------------------------|
--7s-9-----9----5-5p-4-5-7p-5-4---|--7s-9-----9--9--7s-9-----9--9--|
--5s-7-7-7-7--------------------5-|--5s-7-7-7-7--7--5s-7-7-7-7--7--|
----------------------------------|--------------------------------|


                                     Verso Riff 2           
  S  S S S Q    S S  S S S  S S S    H            H         
----------------------------------|------------------------|
----------------------------------|------------------------|
----------------------------------|------------------------|
--7s-9-----9----5-5p-4-5-7p-5-4---|--5------------4--------|
--5s-7-7-7-7--------------------5-|--3------------2--------|
----------------------------------|------------------------|


   S   S  S  S   E    Q.        Q          Q    H.            
---------------------------------------|---------------------|
------12-15-----15b--15pb------15pb----|---L-----------------|
--14b-------14b------------------------|---------------------|
---------------------------------------|---------------------|
---------------------------------------|---------------------|
---------------------------------------|---------------------|


                                          Pre-Coro              
   S  S  Q     S S  S  E     S  Q         Q       H.            
-----15b-L----12----------------------|------------------------|
--12----------------------------------|------------------------|
-------------------12-14br--12--------|------------------------|
-------------------------------14~----|---L\-------------------|
--------------------------------------|------------------------|
--------------------------------------|------------------------|


  H        H           H        H         
--------------------|--------------------|
--------------------|--------------------|
--------------------|--------------------|
--------------------|--5--------4--------|
--5--------4--------|--3--------2--------|
--3--------2--------|--------------------|


  Riff A                                                                 
           SH     SH     SH     SH     SH     SH     SH     SH     SH    
           |------3------|      |------3------|      |------3------|     
  Q        E      E      E      E      E      E      E      E      E     
------------------------------------------------------------------------|
------------------------------------------------------------------------|
--2b-----<>2pb--<>2pb--<>2pb--<>2pb--<>2pb--<>2pb--<>2pb--<>2pb--<>2pb--|
------------------------------------------------------------------------|
------------------------------------------------------------------------|
------------------------------------------------------------------------|


    SH     SH     SH     SH     SH     SH              
    |------3------|      |------3------|               
    E      E      E      E      E      E    Q.     E   
------------------------------------------------------|
------------------------------------------------------|
--<>2pb--<>2pb--<>2pb--<>2pb--<>2pb--<>2pb------------|
--------------------------------------------2---------|
------------------------------------------------------|
------------------------------------------------------|


   E    E   E    E   E    S  S  Q         E    S  S  E    S  S   H         
--------------------------------------|-----------------------------------|
-------12-------12-------12-12--------|-------12-12------12-15b--L--------|
--14b------14b------14b--------14b----|--14b--------14b-------------------|
--------------------------------------|-----------------------------------|
--------------------------------------|-----------------------------------|
--------------------------------------|-----------------------------------|


  Coro                                                            
  S    S S S Q    S  S S E  S E     S  S S S Q    S  S S E  S E   
---------------------------------|-------------------------------|
---------------------------------|-------------------------------|
---------------------------------|-------------------------------|
--7s---9-----9-------------------|--7s-9-----9----5h-6-7---------|
--5s---7-7-7-7----7p-5---5----5--|--5s-7-7-7-7-----------5----5--|
-----------------------7----7----|--------------------------7----|


                                  Puente                           
  S  S S S Q    S  S S E  S E     S      S S S E  S E  E  S E  E   
-------------------------------|----------------------------------|
-------------------------------|----------------------------------|
-------------------------------|----------------------------------|
--7s-9-----9-------------------|----------------------------------|
--5s-7-7-7-7----7p-5---5----5--|--3------3-3-3-3----3--3----3--3--|
---------------------7----7----|------------------3-------3-------|


                                  Outro                            
  S S S S E  S E  E  S E  E       S     S S E  E  E  E  S E  E     
-----------------------------||----------------------------------||
-----------------------------||----------------------------------||
-----------------------------||*--------------------------------*||
-----------------------------||*--------------------------------*||
--5-5-5-5-5----5--5----5--5--||---7p----5---5-----5--------------||
-------------5-------5-------||-----------7----7-----7--6-5--3---||


  S  S S E  E  E  E  S E  E     Q     H.             
-----------------------------|---------------------||
-----------------------------|---------------------||
-----------------------------|--9\-----------------||
-----------------------------|--9\-----------------||
--7p-5---5-----5-------------|--7\-----------------||
-------7----7-----7--6-5--3--|---------------------||




Voie Melody:
                                  
Bruce Dickinson

           Verso Riff 1                                            
   Born in to           a  scene   Of an gri ness and    greed,    
   S    S  S            S  E    S  S  S  S   S    T   T  E     E   
--10---12-12-----------12-12------10-10-12--12---12---L-12--------|
------------------------------------------------------------------|
------------------------------------------------------------------|
------------------------------------------------------------------|
------------------------------------------------------------------|
------------------------------------------------------------------|


   Do mi    nance    and per se cu  tion.     My 
   S  T  T  T     T  S   E   S  E   E.   E.   S  
--10-12--L-12-----L-12--12--12-15--15--------10-|
------------------------------------------------|
------------------------------------------------|
------------------------------------------------|
------------------------------------------------|
------------------------------------------------|


   mo ther    was a  queen,   My dad I've ne ver    seen,    
   S  T    T  S   S  E     S  S  S   S    S  T   T  E    E   
--10-12----L-12--12-12-------10-10--12---12-12---L-12-------|
------------------------------------------------------------|
------------------------------------------------------------|
------------------------------------------------------------|
------------------------------------------------------------|
------------------------------------------------------------|


   I  was ne ver    meant to be.            
   S  S   S  T   T  E     S  S   Q    Q     
--10-12--12-12---L-12----12-15---L---------|
-------------------------------------------|
-------------------------------------------|
-------------------------------------------|
-------------------------------------------|
-------------------------------------------|


  Verso Riff 2                                                                  
                And    now I  spend my  time loo king    all a  round,          
  E.            T   T  E   S  E     E   E    S   E       E   S  H.           S  
-----------------------------------------------------|--15--14-----------------|
---------------13---L-13--13-12----12--12---12--12---|---------17--------------|
-----------------------------------------------------|-------------------------|
-----------------------------------------------------|-------------------------|
-----------------------------------------------------|-------------------------|
-----------------------------------------------------|-------------------------|


        For a  man that's no  where    to  be    found.          
  Q     E   S  E   E      E   E.       E   T  T  H.           S  
-----------------------------------|--15--14--L-----------------|
-------13--13-12--12-----12--12----|------------17--------------|
-----------------------------------|----------------------------|
-----------------------------------|----------------------------|
-----------------------------------|----------------------------|
-----------------------------------|----------------------------|


                       Pre-Coro         
       U  ntil I  find him...       I'm 
  E.   S  E    S  E    E.      E.   S   
---------------------------------------|
------13-13---13-12---12-----------12--|
---------------------------------------|
---------------------------------------|
---------------------------------------|
---------------------------------------|


   ne  ver go  nna    stop sear ching,     I'm 
   E   S   E   T   T  E    E    E     E.   S   
----------------------------------------------|
--15--15--15--15---L-15---14---14---------14--|
----------------------------------------------|
----------------------------------------------|
----------------------------------------------|
----------------------------------------------|


                                        Riff A                     
   go nna find my old man,    Go nna    travel a  round.           
   S  E   E    S  S   Q.      S  E      E      S  H.            S  
------------------------------------|--15-----14------------------|
--13-13--15---13-13--12------12-12--|------------17-------------L-|
------------------------------------|-----------------------------|
------------------------------------|-----------------------------|
------------------------------------|-----------------------------|
------------------------------------|-----------------------------|


                                                            'Cause    I'm 
   W                   W                   H        Q.      T      T  S   
--------------------|-------------------|------------------12------L-12--|
---L----------------|-------------------|--------------------------------|
--------------------|-------------------|--------------------------------|
--------------------|-------------------|--------------------------------|
--------------------|-------------------|--------------------------------|
--------------------|-------------------|--------------------------------|


   Coro                                                                   
   a    Wrath child,        Yeah    I'm    a   Wrath child.        I'm    
   E    E     Q     Q.      T    T  S      E   E     Q     Q.      S   S  
--12---15----15------------12----L-12--|--12--15----15------------12---L-|
-------17----17------------------------|------17----17-------------------|
---------------------------------------|---------------------------------|
---------------------------------------|---------------------------------|
---------------------------------------|---------------------------------|
---------------------------------------|---------------------------------|


                                  Puente                           
   a   Wrath    child.                    I'm co  ming to get you, 
   E   S     S  Q     H           Q.      S   E   E    S  E   E    
--12--15-----L-15--------------|---------15--15--15---12-15--15---|
------17-----L-17--------------|----------------------------------|
-------------------------------|----------------------------------|
-------------------------------|----------------------------------|
-------------------------------|----------------------------------|
-------------------------------|----------------------------------|


            oooh!   yeah!.                                              
  Q.     S  Q    S  S      E.   
-----------17------15------L---|
-------------------------------|
-------------------------------|
-------------------------------|
-------------------------------|
-------------------------------|


   Verso Riff 1                                                           
   Say          it doe sn't ma  tter Ain't no thin' go nna    al  ter The 
   S            S  S   S    E   S    S     S  S     S  T   T  E   S   S   
--10-----------12-12--12---12--12---10----10-12----12-12---L-12--12--10--|
-------------------------------------------------------------------------|
-------------------------------------------------------------------------|
-------------------------------------------------------------------------|
-------------------------------------------------------------------------|
-------------------------------------------------------------------------|


   course of    my  des ti na  tion.     I  
   S      T  T  E   E   S  E   E.   E.   S  
--10-----12--L-12--12--12-15--15--------10-|
-------------------------------------------|
-------------------------------------------|
-------------------------------------------|
-------------------------------------------|
-------------------------------------------|


   know    I've    got to find   Some    se    rious    piece of    mind, Or I  
   T    T  T    T  S   S  E   S  T    T  T  T  T     T  S     T  T  E     S  S  
--10----L-12----L-12--12-12-----10----L-10--L-12-----L-12----12--L-12----10-10-|
-------------------------------------------------------------------------------|
-------------------------------------------------------------------------------|
-------------------------------------------------------------------------------|
-------------------------------------------------------------------------------|
-------------------------------------------------------------------------------|


   know    I'll just go  cra zy.       
   T    T  E    E    E   E   Q    E.   
--10----L-12---12---12--15--15--------|
--------------------------------------|
--------------------------------------|
--------------------------------------|
--------------------------------------|
--------------------------------------|


  Verso Riff 2                                                                  
                But    now I  spend my  time loo king    all a  round,          
  E.            T   T  E   S  E     E   E    S   E       E   S  H.           S  
-----------------------------------------------------|--15--14-----------------|
---------------13---L-13--13-12----12--12---12--12---|---------17--------------|
-----------------------------------------------------|-------------------------|
-----------------------------------------------------|-------------------------|
-----------------------------------------------------|-------------------------|
-----------------------------------------------------|-------------------------|


        For a  man thats no  where    to  be    found.          
  Q     E   S  E   E     E   E.       E   T  T  H.           S  
----------------------------------|--15--14--L-----------------|
-------13--13-12--12----12--12----|------------17--------------|
----------------------------------|----------------------------|
----------------------------------|----------------------------|
----------------------------------|----------------------------|
----------------------------------|----------------------------|


  Pre-Coro                                
            Un til I  find him...     I'm 
  E.        S  E   S  E    E.    E.   S   
-----------------------------------------|
-----------13-13--13-12---12---------12--|
-----------------------------------------|
-----------------------------------------|
-----------------------------------------|
-----------------------------------------|


   ne  ver go  nna    stop sear ching,     I'm 
   E   S   E   T   T  E    E    E     E.   S   
----------------------------------------------|
--15--15--15--15---L-15---14---14---------14--|
----------------------------------------------|
----------------------------------------------|
----------------------------------------------|
----------------------------------------------|


                                        Riff A                     
   go nna find my old man,    Go nna    travel a  round.           
   S  E   E    S  S   Q.      S  E      E      S  H.            S  
------------------------------------|--15-----14------------------|
--13-13--15---13-13--12------12-12--|------------17-------------L-|
------------------------------------|-----------------------------|
------------------------------------|-----------------------------|
------------------------------------|-----------------------------|
------------------------------------|-----------------------------|


                                                            'Cause    I'm 
   W                   W                   H        Q.      T      T  S   
--------------------|-------------------|------------------12------L-12--|
---L----------------|-------------------|--------------------------------|
--------------------|-------------------|--------------------------------|
--------------------|-------------------|--------------------------------|
--------------------|-------------------|--------------------------------|
--------------------|-------------------|--------------------------------|


   Coro                                                                     
   a    Wrath child,        Well    I'm    a   Wrath child.        Yeah!    
   E    E     Q     Q.      T    T  S      E   E     Q     Q.      S     S  
--12---15----15------------12----L-12--|--12--15----15------------12-----L-|
-------17----17------------------------|------17----17---------------------|
---------------------------------------|-----------------------------------|
---------------------------------------|-----------------------------------|
---------------------------------------|-----------------------------------|
---------------------------------------|-----------------------------------|


                                  Puente                           
       Wrath    child.                    I'm co  ming to get you, 
   E   S     S  Q     H           Q.      S   E   E    S  E   E    
---L--15-----L-15--------------|---------15--15--15---12-15--15---|
------17-----L-17--------------|----------------------------------|
-------------------------------|----------------------------------|
-------------------------------|----------------------------------|
-------------------------------|----------------------------------|
-------------------------------|----------------------------------|


                                     Outro                                   
            oooh!   yeah! yeah!.                                             
  Q.     S  Q    S  E     E          W                     W                 
-----------17------15----15-----||---------------------||-------------------|
--------------------------------||---------------------||-------------------|
--------------------------------||*-------------------*||-------------------|
--------------------------------||*-------------------*||-------------------|
--------------------------------||---------------------||-------------------|
--------------------------------||---------------------||-------------------|


   Yeaouhh!               
   Q       H.             
--15\-------------------||
------------------------||
------------------------||
------------------------||
------------------------||
------------------------||




Chorus:
                                  
Coro: Steve

  Coro                                                                       
  E     E   Q    H           E   E   Q    H           E   E   Q    H         
-------12--12-------------|-----12--12-------------|-----12--12-------------|
--------------------------|------------------------|------------------------|
--------9---9-------------|------9---9-------------|------9---9-------------|
--------9---9-------------|------9---9-------------|------9---9-------------|
--------------------------|------------------------|------------------------|
--------------------------|------------------------|------------------------|




Duration Legend
---------------
W - whole
H - half
Q - quarter
E - 8th
S - 16th
T - 32nd
X - 64th
. - note dotted
|-n-|  - n-tuplets


Tablature Legend
----------------
L - tied note
x - dead note
g - grace note
(n) - ghost note
> - accentuded note
NH - natural harmonic
AH - artificial harmonic
TH - tapped harmonic
SH - semi harmonic
PH - pitch harmonic
h - hammer on
p - pull off
b - bend
br - bendRelease
pb - preBend
pbr - preBendRelease
brb - bendReleaseBend
\n/ - tremolo bar dip
\n - tremolo bar dive
-/n - tremolo bar Release up
/n\ - tremolo bar inverted dip
/n - tremolo bar return
-\n - tremolo bar Release down
S - shift slide
s - legato slide
/ -  slide into from below or out of upwards
\ -  slide into from above or out of downwards
~ - vibrato
W - wide vibrato
tr - trill
TP - tremolo picking
T - tapping
S - slap
P - pop
< - fade in
^ - brush up
v - brush down

            
            
Suggest correction
Creating personal tab
Creating personal tab
You can edit any tab online and save it as your Personal.

You can edit, replace or remove any tab part or add personal notes – all changes will be seen only by you.

Personal tabs can be accessed anytime from any device, even offline.
Learn more »
comments
print report bad tab
guest
You may want to rate the tab now too:
select rating
Wanna post a correction for this tab? Suggest correction