Oops, an error
Loading. Please wait.

Wrathchild tab

version 5
version 5

Whole song

3,214 views 1 this week
no commentswrite comment
1 2 3 4 5
x 4
add to favorites
×
Save as Personal and add changes to this tab that will be seen only by you. Learn more ›
×
You can save this tab as Personal to edit and correct it or add notes. All changes will be seen only by you. Learn more »
launch autoscroll
font size
0
reset
how to read this tab
guitar tuner
backing track
0:00
0:00
edit
Autoscroll
slow
fast
+/-
esc
set tempo
stop
Iron Maiden - Wrath Child

Tabbed by Dustin Sullivan

This is my third tab and this is 100% correct.

Key:

H=Hammer On
P=Pull Off
B=Bend

 ~Intro~


 e|----------------------------------------------------------|
 B|----------------------------------------------------------|
 G|----------------------------------------------------------|
 D|------------------------------------------55-4-5-7-5-4----|
 A|-5h7-7-7-------5h7-7-7-------5h7-7---------------------5--| (X2)
 E|----------0-0-----------0-0---------0-0-------------------|


 ~Verse 1~


 e|----------------------------------------------------------|
 B|----------------------------------------------------------|
 G|----------------------------------------------------------|
 D|------------------------------------------55-4-5-7-5-4----|
 A|-5h7-7-7-------5h7-7-7-------5h7-7---------------------5--| (X2)
 E|----------0-0-----------0-0---------0-0-------------------|


 ~Pre-Chorus~

 e|----------------------------------------|
 B|----------------------------------------|
 G|----------------------------------------|
 D|----------------------------------------|
 A|-8~---5~----5h7-7-7-------5h7-7-7-------| (x2)
 E|-6~---7~-------------0-0-----------0-0--|


 e|-------------------------------|
 B|-------------------------------|
 G|-------------------------------|
 D|-------------------------------|
 A|-8~---5~---5~---4~---8~---5~---|
 E|-6~---7~---3~---2~---6~---7~---|


 e|----------------------------------------------------------|
 B|----------------------------------------------------------|
 G|----------------------------------------------------------|
 D|------------------------------------------55-4-5-7-5-4----|
 A|-5h7-7-7-------5h7-7-7-------5h7-7---------------------5--| (X2)
 E|----------0-0-----------0-0---------0-0-------------------|


 ~Chorus~


 e|--------------------------------------------------------------|
 B|--------------------------------------------------------------|
 G|--------------------------------------------------------------|
 D|-9-9-----------------9-9---5h6h7-----------9-9----------------|
 A|-7-7---7p5---5---5---7-7----------5----5---7-7---7p5---5---5--|
 E|-----------7----7--------------------7---------------7----7---|


 e|------------------------------------------------------|
 B|------------------------------------------------------|
 G|------------------------------------------------------|
 D|-5-5-5-5-5----5-5----5-----7-7-7-7-7----7-7---7-------|
 A|-3-3-3-3-3----3-3----3-----5-5-5-5-5----5-5---5-------|
 E|------------3------3---3--------------5-----5---5-----|


 e|-------------------------|
 B|-------------------------|
 G|-------------------------|
 D|-------------------------|
 A|-7p5----5----5-----------|
 E|------7---7----7--6-5-3--|


 Sorry I don't have the solo but the backing for it is the same as the verse:


 e|----------------------------------------------------------|
 B|----------------------------------------------------------|
 G|----------------------------------------------------------|
 D|------------------------------------------55-4-5-7-5-4----|
 A|-5h7-7-7-------5h7-7-7-------5h7-7---------------------5--| (X4)
 E|----------0-0-----------0-0---------0-0-------------------|

 And then this again:

 e|------------------------------------------------------|
 B|------------------------------------------------------|
 G|------------------------------------------------------|
 D|-5-5-5-5-5----5-5----5-----7-7-7-7-7----7-7---7-------|
 A|-3-3-3-3-3----3-3----3-----5-5-5-5-5----5-5---5-------|
 E|------------3------3---3--------------5-----5---5-----|


 e|-------------------------|
 B|-------------------------|
 G|-------------------------|
 D|-------------------------|
 A|-7p5----5----5-----------|
 E|------7---7----7--6-5-3--|


 ~Bridge/Riff 2 thing~


 e|------------------------------|
 B|------------------------------|
 G|------------------------------|
 D|--------0------0--------------|
 A|-2-2--2---2--2---2-1-0--------|  (X4)
 E|-----------------------3-0----|


 e|------------------------------|----------------------------|
 B|------------------------------|----------------------------|
 G|------------------------------|----------------------------|
 D|--------2-----2---------------|--------3------3------------|
 A|-4-4--4--4--4--4-3-2-----(X2)-|-5-5--5---5--5---5-4-3------| (X2)
 E|---------------------5-2------|-----------------------6-2--|


 e|-------------------------|
 B|-------------------------|
 G|-------------------------|
 D|-------------------------|
 A|-7p5----5----5-----------|
 E|------7---7----7--6-5-3--|


 ~Verse 2~


 e|----------------------------------------|
 B|----------------------------------------|
 G|----------------------------------------|
 D|----------------------------------------|
 A|-8~---5~----5h7-7-7-------5h7-7-7-------| (x2)
 E|-6~---7~-------------0-0-----------0-0--|


 e|-------------------------------|
 B|-------------------------------|
 G|-------------------------------|
 D|-------------------------------|
 A|-8~---5~---5~---4~---8~---5~---|
 E|-6~---7~---3~---2~---6~---7~---|


 e|----------------------------------------------------------|
 B|----------------------------------------------------------|
 G|----------------------------------------------------------|
 D|------------------------------------------55-4-5-7-5-4----|
 A|-5h7-7-7-------5h7-7-7-------5h7-7---------------------5--| (X2)
 E|----------0-0-----------0-0---------0-0-------------------|


 ~Chorus~


 e|--------------------------------------------------------------|
 B|--------------------------------------------------------------|
 G|--------------------------------------------------------------|
 D|-9-9-----------------9-9---5h6h7-----------9-9----------------|
 A|-7-7---7p5---5---5---7-7----------5----5---7-7---7p5---5---5--|
 E|-----------7----7--------------------7---------------7----7---|


 e|------------------------------------------------------|
 B|------------------------------------------------------|
 G|------------------------------------------------------|
 D|-5-5-5-5-5----5-5----5-----7-7-7-7-7----7-7---7-------|
 A|-3-3-3-3-3----3-3----3-----5-5-5-5-5----5-5---5-------|
 E|------------3------3---3--------------5-----5---5-----|


 e|---------------------------------------------------------------------------|
 B|---------------------------------------------------------------------------|
 G|--------------------------------------------------9p7----7----7------------|
 D|-------------------------------------------------------9---9----9-8-7-7-9\-|
 A|-7p5----5----5------------7p5----5----5---------------------------------7\-|
 E|------7---7----7--6-5-3--------7---7----7--6-5-3---------------------------|


And that's it.  Pretty short song but sorry if I messed up the order.
I also couldn't figure out all the solos and licks with the low quality   youtube version lol.


TO UG:

This is my third tab and I haven't seen any of them come up yet
(Been about 4-5 days).

            
            
Suggest correction
Creating personal tab
Creating personal tab
You can edit any tab online and save it as your Personal.

You can edit, replace or remove any tab part or add personal notes – all changes will be seen only by you.

Personal tabs can be accessed anytime from any device, even offline.
Learn more »
comments
print report bad tab
guest
Wanna post a correction for this tab? Suggest correction