Oops, an error
Loading. Please wait.

Die Nacht Der Lebenden Toten tab

38 views 1 this week
no commentswrite comment
1 2 3 4 5
3 more votes to show rating
add to favorites
×
Save as Personal and add changes to this tab that will be seen only by you. Learn more ›
×
You can save this tab as Personal to edit and correct it or add notes. All changes will be seen only by you. Learn more »
launch autoscroll
font size
0
reset
how to read this tab
guitar tuner
edit
Autoscroll
slow
fast
+/-
esc
set tempo
stop
Author
Gath
                          E   H        E   Q        E  H        E  Q      
E||-------------------|--------------------------|-----------------------|
B||-------------------|--------------------------|-----------------------|
G||-------------------|--11--11-----------11-----|--7--7-----------7-----|
D||-------------------|--11--11-----------11-----|--7--7-----------7-----|
A||-------------------|---9---9------------9\----|--5--5-----------5\----|
E||-------------------|--------------------------|-----------------------|


  E  H        E  Q        E  H        E  E  E      E   H        E   Q      
-----------------------|-----------------------|--------------------------|
-----------------------|-----------------------|--------------------------|
-----------------------|--9--9--------9--7--9--|--11--11-----------11-----|
--7--7-----------7-----|--9--9--------9--7--9--|--11--11-----------11-----|
--7--7-----------7\----|--7--7--------7--5--7--|---9---9------------9\----|
--5--5-----------5-----|-----------------------|--------------------------|


  E  H        E  Q        E  H        E  Q        E  H        E  E  E   
-----------------------|-----------------------|-----------------------|
-----------------------|-----------------------|-----------------------|
--7--7-----------7-----|-----------------------|--9--9--------9--7--9--|
--7--7-----------7-----|--7--7-----------7-----|--9--9--------9--7--9--|
--5--5-----------5\----|--7--7-----------7\----|--7--7--------7--5--7--|
-----------------------|--5--5-----------5-----|-----------------------|


   E   E   E  E  H           E  E  E  E  H           E  E  E  E  H         
--------------------------|-----------------------|-----------------------|
--------------------------|-----------------------|-----------------------|
--11--11--11--------------|--7--7--7--------------|-----------------------|
--11--11--11--------------|--7--7--7--------------|--7--7--7--------------|
---9---9---9--------------|--5--5--5--------------|--7--7--7--------------|
--------------------------|-----------------------|--5--5--5--------------|


  E  E  E  E  H            E   E   E  E  H           E  E  E  E  H         
-----------------------|--------------------------|-----------------------|
-----------------------|--------------------------|-----------------------|
--9--9--9--------------|--11--11--11--------------|--7--7--7--------------|
--9--9--9--------------|--11--11--11--------------|--7--7--7--------------|
--7--7--7--------------|---9---9---9--------------|--5--5--5--------------|
-----------------------|--------------------------|-----------------------|


  E  E  E  E  H           E  E  E  E  E  E  E  E      E   Q     Q    E  E  E   
-----------------------|--------------------------|---------------------------|
-----------------------|--------------------------|---------------------------|
-----------------------|--9--9--9--9--9--9--9--9--|--11--11-------------------|
--7--7--7--------------|--9--9--9--9--9--9--9--9--|--11--11----11----9--7--9--|
--7--7--7--------------|--7--7--7--7--7--7--7--7--|---9---9-------------------|
--5--5--5--------------|--------------------------|---------------------------|


  E  Q     Q    E  E  E     E  Q    Q    E   E  E   
-------------------------|-------------------------|
-------------------------|-------------------------|
--7--7-------------------|-------------------------|
--7--7----11----9--7--9--|--7--7----7----9--11--9--|
--5--5-------------------|--7--7-------------------|
-------------------------|--5--5-------------------|


  PM   PM   PM   PM   PM   PM                                
  E  S E  S E  T E  S E  S S  T     E   Q     Q    E  E  E   
--------------------------------|---------------------------|
--------------------------------|---------------------------|
--------------------------------|--11--11-------------------|
--9----7----6----7----6----4----|--11--11----11----9--7--9--|
--------------------------------|---9---9-------------------|
--------------------------------|---------------------------|


  E  Q     Q    E  E  E     E  Q    Q    E   E  E     W                 
-------------------------|-------------------------|-------------------|
-------------------------|-------------------------|-------------------|
--7--7-------------------|-------------------------|--9----------------|
--7--7----11----9--7--9--|--7--7----7----9--11--9--|--9----------------|
--5--5-------------------|--7--7-------------------|--7----------------|
-------------------------|--5--5-------------------|-------------------|


  Q    E  E  Q    Q       Q    E  E  Q    Q       Q    E  E  Q    Q      
-----------------------|-----------------------|------------------------|
-----------------------|-----------------------|------------------------|
-------------6----7----|------------------7----|--6-------6--6----7s----|
-----------------------|--7-------7--7---------|------------------------|
--9-------9------------|--L--------------------|------------------------|
-----------------------|-----------------------|------------------------|


  Q    Q    Q    Q       Q    E  E  Q    E  E     Q    E  E  Q    Q     
----------------------|------------------------|-----------------------|
----------------------|------------------------|-----------------------|
--9----9----7----6----|-------------6----7-----|-----------------------|
----------------------|---------------------7--|--7-------7--7----6----|
----------------------|--9-------9-------------|--L--------------------|
----------------------|------------------------|-----------------------|


  Q    E  Q    E  Q        Q    E  Q    E  E  E        H         H         
------------------------|-------------------------|-----------------------|
------------------------|-------------------------|-----------------------|
------------------------|-------------------------|-----------------------|
------------------7s----|--9-------7-------6------|--(11)-----------------|
--7-------7-------------|---------------------7s--|----9---------L--------|
------------------------|-------------------------|-----------------------|


  Q    Q     Q     Q       H        H           Q    Q    Q    Q     
------------------------|--------------------|----------------------|
------------------------|--------------------|----------------------|
------------------------|--------------------|----------------------|
------------11----11----|--7-----------------|------------7----7----|
--L----L-----9-----9----|--5--------L--------|--L----L----5----5----|
------------------------|--------------------|----------------------|


  H        H           Q    Q    Q    Q       E  E  E  E  E  E  E  E   
--------------------|----------------------|--------------------------|
--------------------|----------------------|--------------------------|
--------------------|----------------------|--------------------------|
--9-----------------|------------9----9----|--7--7--7--7--7--7--7--7--|
--7--------L--------|--L----L----7----7----|--5--5--5--5--5--5--5--5--|
--------------------|----------------------|--------------------------|


  Q    Q    Q    Q       E   E  E   E  E   E  E   E   
----------------------|------------------------------|
----------------------|------------------------------|
----------------------|------------------------------|
--9----9----9----9----|--x--11--x--11--x--11--x--11--|
--7----7----7----7----|--9---9--9---9--9---9--9---9--|
----------------------|------------------------------|


  E  E  E  E  E  E  E  E     E  E  E  E  E  E  E  E     E  E  E  E  Q    Q     
--------------------------|--------------------------|------------------------|
--------------------------|--------------------------|------------------------|
--------------------------|--------------------------|------------------------|
--x--7--x--7--x--7--x--7--|--------------------------|--9--9--9--9--9---------|
--5--5--5--5--5--5--5--5--|--x--7--x--7--x--7--x--7--|--7--7--7--7--7---------|
--------------------------|--5--5--5--5--5--5--5--5--|------------------------|


-------|-------|-------|-------|-------|-------|-------|-------|-------|-------|
-------|-------|-------|-------|-------|-------|-------|-------|-------|-------|
-------|-------|-------|-------|-------|-------|-------|-------|-------|-------|
-------|-------|-------|-------|-------|-------|-------|-------|-------|-------|
-------|-------|-------|-------|-------|-------|-------|-------|-------|-------|
-------|-------|-------|-------|-------|-------|-------|-------|-------|-------|


-------|-------|-------|-------|-------|-------|
-------|-------|-------|-------|-------|-------|
-------|-------|-------|-------|-------|-------|
-------|-------|-------|-------|-------|-------|
-------|-------|-------|-------|-------|-------|
-------|-------|-------|-------|-------|-------|


   E   E   E   E   E   E   E   E     E  E  E  E  E  E  E  E   
----------------------------------|--------------------------|
----------------------------------|--------------------------|
----------------------------------|--------------------------|
--11--11--11--11--11--11--11--11--|--7--7--7--7--7--7--7--7--|
---9---9---9---9---9---9---9---9--|--5--5--5--5--5--5--5--5--|
----------------------------------|--------------------------|


                             PM PM PM PM PM PM PM PM  
  E  E  E  E  E  E  E  E     E  E  E  E  E  E  E  E   
--------------------------|--------------------------|
--------------------------|--------------------------|
--------------------------|--------------------------|
--------------------------|--9--9--9--9--9--9--9--9--|
--7--7--7--7--7--7--7--7--|--7--7--7--7--7--7--7--7--|
--5--5--5--5--5--5--5--5--|--------------------------|


   E   E   E   E   E   E   E   E     E  E  E  E  E  E  E  E   
----------------------------------|--------------------------|
----------------------------------|--------------------------|
----------------------------------|--------------------------|
--11--11--11--11--11--11--11--11--|--7--7--7--7--7--7--7--7--|
---9---9---9---9---9---9---9---9--|--5--5--5--5--5--5--5--5--|
----------------------------------|--------------------------|


  E  E  E  E  E  E  E  E     E  E  E  E  E  E  E  E   
--------------------------|--------------------------|
--------------------------|--------------------------|
--------------------------|--------------------------|
--------------------------|--9--9--9--9--9--9--9--9--|
--7--7--7--7--7--7--7--7--|--7--7--7--7--7--7--7--7--|
--5--5--5--5--5--5--5--5--|--------------------------|


   PM  PM  PM  PM  PM  PM  PM  PM                             
   E   E   E   E   E   E   E   E     E  E  E  E  E  E  E  E   
----------------------------------|--------------------------|
----------------------------------|--------------------------|
----------------------------------|--------------------------|
--11--11--11--11--11--11--11--11--|--7--7--7--7--7--7--7--7--|
---9---9---9---9---9---9---9---9--|--5--5--5--5--5--5--5--5--|
----------------------------------|--------------------------|


  PM PM PM PM PM PM PM PM                                                     
  E  E  E  E  E  E  E  E     E  E  E  E  E  E  E  E      E   E  Q     E   E   
--------------------------|--------------------------|-----------------------|
--------------------------|--------------------------|-----------------------|
--------------------------|--------------------------|-----------------------|
--------------------------|--9--9--9--9--9--9--9--9--|--11--11-------11--11--|
--7--7--7--7--7--7--7--7--|--7--7--7--7--7--7--7--7--|---9---9--------9---9--|
--5--5--5--5--5--5--5--5--|--------------------------|-----------------------|


  E  E  Q    E  E     E  E  Q    E  E     E  E  E  E  E  E  E  E   
-------------------|-------------------|--------------------------|
-------------------|-------------------|--------------------------|
-------------------|-------------------|--------------------------|
--7--7-------7--7--|-------------------|--9--9--9--9--9--9--9--9--|
--5--5-------5--5--|--7--7-------7--7--|--7--7--7--7--7--7--7--7--|
-------------------|--5--5-------5--5--|--------------------------|


   E   Q     Q    E  E  E     E  Q     Q    E  E  E     E  Q    Q    E   E  E   
---------------------------|-------------------------|-------------------------|
---------------------------|-------------------------|-------------------------|
--11--11-------------------|--7--7-------------------|-------------------------|
--11--11----11----9--7--9--|--7--7----11----9--7--9--|--7--7----7----9--11--9--|
---9---9-------------------|--5--5-------------------|--7--7-------------------|
---------------------------|-------------------------|--5--5-------------------|


  PM   PM   PM   PM   PM   PM                                
  E  S E  S E  T E  S E  S S  T     E   Q     Q    E  E  E   
--------------------------------|---------------------------|
--------------------------------|---------------------------|
--------------------------------|--11--11-------------------|
--9----7----6----7----6----4----|--11--11----11----9--7--9--|
--------------------------------|---9---9-------------------|
--------------------------------|---------------------------|


  E  Q     Q    E  E  E     E  Q    Q    E   E  E     H        H         
-------------------------|-------------------------|--------------------|
-------------------------|-------------------------|--------------------|
--7--7-------------------|-------------------------|--9-----------------|
--7--7----11----9--7--9--|--7--7----7----9--11--9--|--9-----------------|
--5--5-------------------|--7--7-------------------|--7-----------------|
-------------------------|--5--5-------------------|--------------------|


  Q    E  E  Q    Q       Q    E  E  Q    Q       Q    E  E  Q    Q      
-----------------------|-----------------------|------------------------|
-----------------------|-----------------------|------------------------|
-------------6----7----|------------------7----|--6-------6--6----7s----|
-----------------------|--7-------7--7---------|------------------------|
--9-------9------------|--L--------------------|------------------------|
-----------------------|-----------------------|------------------------|


  Q    Q    Q    Q       Q    E  E  Q    E  E     Q    E  E  Q    Q     
----------------------|------------------------|-----------------------|
----------------------|------------------------|-----------------------|
--9----9----7----6----|-------------6----7-----|-----------------------|
----------------------|---------------------7--|--7-------7--7----6----|
----------------------|--9-------9-------------|--L--------------------|
----------------------|------------------------|-----------------------|


  Q    E  Q    E  Q        Q    E  Q    E  E  E        H         H         
------------------------|-------------------------|-----------------------|
------------------------|-------------------------|-----------------------|
------------------------|-------------------------|-----------------------|
------------------7s----|--9-------7-------6------|--(11)-----------------|
--7-------7-------------|---------------------7s--|----9---------L--------|
------------------------|-------------------------|-----------------------|


  Q    Q     Q     Q       H        H           Q    Q    Q    Q     
------------------------|--------------------|----------------------|
------------------------|--------------------|----------------------|
------------------------|--------------------|----------------------|
------------11----11----|--7-----------------|------------7----7----|
--L----L-----9-----9----|--5--------L--------|--L----L----5----5----|
------------------------|--------------------|----------------------|


  H        H           Q    Q    Q    Q       E  E  E  E  E  E  E  E   
--------------------|----------------------|--------------------------|
--------------------|----------------------|--------------------------|
--------------------|----------------------|--------------------------|
--9-----------------|------------9----9----|--7--7--7--7--7--7--7--7--|
--7--------L--------|--L----L----7----7----|--5--5--5--5--5--5--5--5--|
--------------------|----------------------|--------------------------|


  Q    Q    Q    Q       E   E  E   E  E   E  E   E   
----------------------|------------------------------|
----------------------|------------------------------|
----------------------|------------------------------|
--9----9----9----9----|--x--11--x--11--x--11--x--11--|
--7----7----7----7----|--9---9--9---9--9---9--9---9--|
----------------------|------------------------------|


  E  E  E  E  E  E  E  E     E  E  E  E  E  E  E  E     E  E  E  E  Q    Q     
--------------------------|--------------------------|------------------------|
--------------------------|--------------------------|------------------------|
--------------------------|--------------------------|------------------------|
--x--7--x--7--x--7--x--7--|--------------------------|--9--9--9--9--9---------|
--5--5--5--5--5--5--5--5--|--x--7--x--7--x--7--x--7--|--7--7--7--7--7---------|
--------------------------|--5--5--5--5--5--5--5--5--|------------------------|


-------|-------|-------|-------|-------|-------|-------|-------|-------|-------|
-------|-------|-------|-------|-------|-------|-------|-------|-------|-------|
-------|-------|-------|-------|-------|-------|-------|-------|-------|-------|
-------|-------|-------|-------|-------|-------|-------|-------|-------|-------|
-------|-------|-------|-------|-------|-------|-------|-------|-------|-------|
-------|-------|-------|-------|-------|-------|-------|-------|-------|-------|


-------|-------|-------|-------|-------|-------|
-------|-------|-------|-------|-------|-------|
-------|-------|-------|-------|-------|-------|
-------|-------|-------|-------|-------|-------|
-------|-------|-------|-------|-------|-------|
-------|-------|-------|-------|-------|-------|


   E   E   E   E   E   E   E   E     E  E  E  E  E  E  E  E   
----------------------------------|--------------------------|
----------------------------------|--------------------------|
----------------------------------|--------------------------|
--11--11--11--11--11--11--11--11--|--7--7--7--7--7--7--7--7--|
---9---9---9---9---9---9---9---9--|--5--5--5--5--5--5--5--5--|
----------------------------------|--------------------------|


                             PM PM PM PM PM PM PM PM  
  E  E  E  E  E  E  E  E     E  E  E  E  E  E  E  E   
--------------------------|--------------------------|
--------------------------|--------------------------|
--------------------------|--------------------------|
--------------------------|--9--9--9--9--9--9--9--9--|
--7--7--7--7--7--7--7--7--|--7--7--7--7--7--7--7--7--|
--5--5--5--5--5--5--5--5--|--------------------------|


   E   E   E   E   E   E   E   E     E  E  E  E  E  E  E  E   
----------------------------------|--------------------------|
----------------------------------|--------------------------|
----------------------------------|--------------------------|
--11--11--11--11--11--11--11--11--|--7--7--7--7--7--7--7--7--|
---9---9---9---9---9---9---9---9--|--5--5--5--5--5--5--5--5--|
----------------------------------|--------------------------|


  E  E  E  E  E  E  E  E     E  E  E  E  E  E  E  E   
--------------------------|--------------------------|
--------------------------|--------------------------|
--------------------------|--------------------------|
--------------------------|--9--9--9--9--9--9--9--9--|
--7--7--7--7--7--7--7--7--|--7--7--7--7--7--7--7--7--|
--5--5--5--5--5--5--5--5--|--------------------------|


   PM  PM  PM  PM  PM  PM  PM  PM                             
   E   E   E   E   E   E   E   E     E  E  E  E  E  E  E  E   
----------------------------------|--------------------------|
----------------------------------|--------------------------|
----------------------------------|--------------------------|
--11--11--11--11--11--11--11--11--|--7--7--7--7--7--7--7--7--|
---9---9---9---9---9---9---9---9--|--5--5--5--5--5--5--5--5--|
----------------------------------|--------------------------|


  PM PM PM PM PM PM PM PM                                                     
  E  E  E  E  E  E  E  E     E  E  E  E  E  E  E  E      E   E  Q     E   E   
--------------------------|--------------------------|-----------------------|
--------------------------|--------------------------|-----------------------|
--------------------------|--------------------------|-----------------------|
--------------------------|--9--9--9--9--9--9--9--9--|--11--11-------11--11--|
--7--7--7--7--7--7--7--7--|--7--7--7--7--7--7--7--7--|---9---9--------9---9--|
--5--5--5--5--5--5--5--5--|--------------------------|-----------------------|


  E  E  Q    E  E     E  E  Q    E  E     E  E  E  E  E  S S  Q      
-------------------|-------------------|----------------------------|
-------------------|-------------------|----------------------------|
-------------------|-------------------|----------------------x-----|
--7--7-------7--7--|-------------------|--9--9--9--9--9--x-x-15s----|
--5--5-------5--5--|--7--7-------7--7--|--7--7--7--7--7--x-x--x-----|
-------------------|--5--5-------5--5--|----------------------------|


  E  E  E  Q    Q     S  S     E  E  E  E  Q    Q     
---------------------------|-------------------------|
---------------------------|-------------------------|
---------------------------|-------------------------|
--9--7---------------11-11-|--11--9--7---------------|
--------9--9---------------|------------9-------9----|
---------------------------|-------------------------|


  E    E  E   E  E   E  E   E       E   E  Q    E  E  T S   T S S  
--------------------------------|---------------------------------|
--------------------------------|-------------------------------9-|
----------9------9------9--11s--|--13--11--9-------9----9h-11-----|
--9s--11-----11-----11----------|---------------------------------|
--------------------------------|---------------------------------|
--------------------------------|---------------------------------|


   Q      Q      Q      Q       E   E   E   E  E   E  E  E          
--11-----11-----11-----------|-------------12-----10--9--9/--|-----|
--12b----12b----12br----9----|--9--10--12--------------------|-----|
-----------------------------|-------------------------------|-----|
-----------------------------|-------------------------------|-----|
-----------------------------|-------------------------------|-----|
-----------------------------|-------------------------------|-----|


  S   S S   S E    E  E    E   Q        E  E   E  E   E  E   E  E   
------------------------------------|--12-----12-----12-----12-----|
----------------------9h--10p--9----|------9------9------9------9--|
--------------9h--11----------------|------------------------------|
--------9h-11-----------------------|------------------------------|
--9h-11-----------------------------|------------------------------|
------------------------------------|------------------------------|


   E  E   E  E   E  E   E  E      E   E   E   E   E   E   Q     
--10-----10-----10-----10-----|--14------14------14------14----|
------9------9------9------9--|------14------14------14--------|
------------------------------|--------------------------------|
------------------------------|--------------------------------|
------------------------------|--------------------------------|
------------------------------|--------------------------------|


   H          E  E  Q        Q      Q      Q      Q      
--16~--------------------|------------------------------|
--------------x--x--x----|--17-----17b----17b----17b----|
--------------x--x--x----|--16b----16b----16b----16b----|
-------------------------|------------------------------|
-------------------------|------------------------------|
-------------------------|------------------------------|


   Q      E   Q    E   E   E      E    E   E   E   E    E   E   E    
------------------------------|-------------------------------------|
--17b-------------------------|-------------------------------------|
--16s----14-------------------|-----------14------14h--16--14--16b--|
-------------16-------16--16--|--14h--16------16--------------------|
------------------------------|-------------------------------------|
------------------------------|-------------------------------------|


   E   E    E   E     E   E   E   E        W                   
--------------------------------------|-----------------------|
--14-------14-------------------------|-----------------------|
------16b------16br--14---------------|-----------------------|
-------------------------16--14--16~--|--(16)~----------------|
--------------------------------------|-----------------------|
--------------------------------------|-----------------------|


                           PM  PM                                          
  H         Q     Q        E   Q     E   H            H        Q    Q      
------------------------|--------------------------|----------------------|
------------------------|--------------------------|----------------------|
------------------------|--------------------------|----------------------|
-----------16----16~----|--7~--7~----7~--7~--------|-----------7----7~----|
------------------------|--------------------------|----------------------|
------------------------|--------------------------|----------------------|


   PM   PM                                              
   E    Q      E    H            H         Q     Q      
------------------------------|------------------------|
------------------------------|------------------------|
------------------------------|------------------------|
--11~--11~----11~--11~--------|-----------11----11~----|
------------------------------|------------------------|
------------------------------|------------------------|


  PM  PM                                          
  E   Q     E   H            H        Q    Q      
--------------------------|----------------------|
--------------------------|----------------------|
--------------------------|----------------------|
--9~--9~----9~--9~--------|-----------9----9~----|
--------------------------|----------------------|
--------------------------|----------------------|


   PM   PM                                              
   E    Q      E    H            H         Q     Q      
------------------------------|------------------------|
------------------------------|------------------------|
------------------------------|------------------------|
--16~--16~----16~--16~--------|-----------16----16~----|
------------------------------|------------------------|
------------------------------|------------------------|


  PM  PM                                          
  E   Q     E   H            H        Q    Q      
--------------------------|----------------------|
--------------------------|----------------------|
--------------------------|----------------------|
--7~--7~----7~--7~--------|-----------7----7~----|
--------------------------|----------------------|
--------------------------|----------------------|


   PM   PM                                              
   E    Q      E    H            H         Q     Q      
------------------------------|------------------------|
------------------------------|------------------------|
------------------------------|------------------------|
--11~--11~----11~--11~--------|-----------11----11~----|
------------------------------|------------------------|
------------------------------|------------------------|


  PM  PM                                                         
  E   Q     E   H             E   E   E   E   E   E    E   S  S  
---------------------------|------------------------------------|
---------------------------|------------------------------------|
---------------------------|------------------------------------|
--9~--9~----9~--9S~--------|--8S--7S--6S--5S--4S--3S~--2S--1S-0-|
---------------------------|------------------------------------|
---------------------------|------------------------------------|


  W                     E   E   E   E   E   E   E   E   
--------------------|----------------------------------|
--------------------|----------------------------------|
--------------------|----------------------------------|
--0~----------------|--11--11--11--11--11--11--11--11--|
--------------------|---9---9---9---9---9---9---9---9--|
--------------------|----------------------------------|


  E  E  E  E  E  E  E  E     E  E  E  E  E  E  E  E   
--------------------------|--------------------------|
--------------------------|--------------------------|
--------------------------|--------------------------|
--7--7--7--7--7--7--7--7--|--------------------------|
--5--5--5--5--5--5--5--5--|--7--7--7--7--7--7--7--7--|
--------------------------|--5--5--5--5--5--5--5--5--|


  PM PM PM PM PM PM PM PM                                     
  E  E  E  E  E  E  E  E      E   E   E   E   E   E   E   E   
--------------------------|----------------------------------|
--------------------------|----------------------------------|
--------------------------|----------------------------------|
--9--9--9--9--9--9--9--9--|--11--11--11--11--11--11--11--11--|
--7--7--7--7--7--7--7--7--|---9---9---9---9---9---9---9---9--|
--------------------------|----------------------------------|


  E  E  E  E  E  E  E  E     E  E  E  E  E  E  E  E   
--------------------------|--------------------------|
--------------------------|--------------------------|
--------------------------|--------------------------|
--7--7--7--7--7--7--7--7--|--------------------------|
--5--5--5--5--5--5--5--5--|--7--7--7--7--7--7--7--7--|
--------------------------|--5--5--5--5--5--5--5--5--|


                              PM  PM  PM  PM  PM  PM  PM  PM  
  E  E  E  E  E  E  E  E      E   E   E   E   E   E   E   E   
--------------------------|----------------------------------|
--------------------------|----------------------------------|
--------------------------|----------------------------------|
--9--9--9--9--9--9--9--9--|--11--11--11--11--11--11--11--11--|
--7--7--7--7--7--7--7--7--|---9---9---9---9---9---9---9---9--|
--------------------------|----------------------------------|


                             PM PM PM PM PM PM PM PM  
  E  E  E  E  E  E  E  E     E  E  E  E  E  E  E  E   
--------------------------|--------------------------|
--------------------------|--------------------------|
--------------------------|--------------------------|
--7--7--7--7--7--7--7--7--|--------------------------|
--5--5--5--5--5--5--5--5--|--7--7--7--7--7--7--7--7--|
--------------------------|--5--5--5--5--5--5--5--5--|


  E  E  E  E  E  E  E  E      E   E  Q     E   E     E  E  Q    E  E   
--------------------------|-----------------------|-------------------|
--------------------------|-----------------------|-------------------|
--------------------------|-----------------------|-------------------|
--9--9--9--9--9--9--9--9--|--11--11-------11--11--|--7--7-------7--7--|
--7--7--7--7--7--7--7--7--|---9---9--------9---9--|--5--5-------5--5--|
--------------------------|-----------------------|-------------------|


  E  E  Q    E  E     E  E  E  E  E  E  E  E      Q    Q     Q    Q     
-------------------|--------------------------|------------------------|
-------------------|--------------------------|--10----7----10----7----|
-------------------|--------------------------|------------------------|
-------------------|--9--9--9--9--9--9--9--9--|------------------------|
--7--7-------7--7--|--7--7--7--7--7--7--7--7--|------------------------|
--5--5-------5--5--|--------------------------|------------------------|


   Q    Q     Q    Q       W                    W                  
------------------------|--9~----------------|--7~----------------|
--10----7----10----7----|--------------------|--------------------|
------------------------|--------------------|--------------------|
------------------------|--------------------|--------------------|
------------------------|--------------------|--------------------|
------------------------|--------------------|--------------------|


   Q    Q     Q    Q        Q    Q     Q    Q       W                  
------------------------|------------------------|--------------------|
--10----7----10----7----|--10----7----10----7----|--------------------|
------------------------|------------------------|--9~----------------|
------------------------|------------------------|--------------------|
------------------------|------------------------|--------------------|
------------------------|------------------------|--------------------|


  H         Q    Q        Q    Q     Q    Q        Q    Q     Q    Q     
----------------------|------------------------|------------------------|
-----------------7----|--10----7----10----7----|--10----7----10----7----|
--7~--------9---------|------------------------|------------------------|
----------------------|------------------------|------------------------|
----------------------|------------------------|------------------------|
----------------------|------------------------|------------------------|


  W                    W                     Q    Q     Q    Q     
--9~----------------|--7~----------------|------------------------|
--------------------|--------------------|--10----7----10----7----|
--------------------|--------------------|------------------------|
--------------------|--------------------|------------------------|
--------------------|--------------------|------------------------|
--------------------|--------------------|------------------------|


   Q    Q     Q    Q        Q    Q     Q    Q       W                  
------------------------|------------------------|--------------------|
--10----7----10----7----|--10----7----10----7----|--------------------|
------------------------|------------------------|--9~----------------|
------------------------|------------------------|--------------------|
------------------------|------------------------|--------------------|
------------------------|------------------------|--------------------|


  H         H            S. S.              
---------------------|--------|-----|-----||
---------------------|--10-10-|-----|-----||
--7~--------9--------|--------|-----|-----||
---------------------|--------|-----|-----||
---------------------|--------|-----|-----||
---------------------|--------|-----|-----||




Duration Legend
---------------
W - whole
H - half
Q - quarter
E - 8th
S - 16th
T - 32nd
X - 64th
. - note dotted
|-n-|  - n-tuplets


Tablature Legend
----------------
L - tied note
x - dead note
g - grace note
(n) - ghost note
> - accentuded note
NH - natural harmonic
AH - artificial harmonic
TH - tapped harmonic
SH - semi harmonic
PH - pitch harmonic
h - hammer on
p - pull off
b - bend
br - bendRelease
pb - preBend
pbr - preBendRelease
brb - bendReleaseBend
\n/ - tremolo bar dip
\n - tremolo bar dive
-/n - tremolo bar Release up
/n\ - tremolo bar inverted dip
/n - tremolo bar return
-\n - tremolo bar Release down
S - shift slide
s - legato slide
/ -  slide into from below or out of upwards
\ -  slide into from above or out of downwards
~ - vibrato
W - wide vibrato
tr - trill
TP - tremolo picking
T - tapping
S - slap
P - pop
< - fade in
^ - brush up
v - brush down

            
            
Suggest correction
Creating personal tab
Creating personal tab
You can edit any tab online and save it as your Personal.

You can edit, replace or remove any tab part or add personal notes – all changes will be seen only by you.

Personal tabs can be accessed anytime from any device, even offline.
Learn more »
Give kudos to tab author, rate the tab!
1 2 3 4 5
comments
print report bad tab
guest
You may want to rate the tab now too:
select rating
Wanna post a correction for this tab? Suggest correction