Oops, an error
Loading. Please wait.

Faded From The Winter tab

version 2
version 2

Whole song

Interactive

30,812 views 39 this week
4 commentsread comments
1 2 3 4 5
x 20
add to favorites
×
Save as Personal and add changes to this tab that will be seen only by you. Learn more ›
×
You can save this tab as Personal to edit and correct it or add notes. All changes will be seen only by you. Learn more »
launch autoscroll
font size
0
reset
how to read this tab
guitar tuner
edit
Autoscroll
slow
fast
+/-
esc
set tempo
stop
Author
Artist: Iron and Wine
Song: Faded From the Winter
Tabbed by entspeak

Standard Tuning

[Intro] x2
E|------------------------------------------------|------------------------------------------------|
B|----------------------0-------------------------|----------------------0-------------------------|
G|----------0-----------------------0-----------0-|----------0-----------------------0-----------0-|
D|----0-----------0-----------0-----------0-------|----0-----------0-----------0-----------0-------|
A|-------9-----------9-----------9-----------9----|-------7-----------7-----------7-----------7----|
E|-7-----------7-----------7-----------7----------|-5-----------5-----------5-----------5----------|

E|------------------------------------------------|------------------------------------------------|
B|------------------------------------------------|------------------------------------------------|
G|----------0-----------0-----------0-----------0-|----------0-----------0-----------0-----------0-|
D|----0-----------0-----------0-----------0-------|----0-----------0-----------0-----------0-------|
A|-------5-----------5-----------5-----------5----|-------5-----------5-----------5-----------5----|
E|-3-----------3-----------3-----------3----------|-3-----------3-----------3-----------3----------|

[Verse] x4

E|------------------------------------------------|------------------------------------------------|
B|----------------------0-------------------------|------------------------------------------------|
G|----------0-----------------------0-----------0-|----------0-----------0-----------0-----------0-|
D|----0-----------0-----------0-----------0-------|----0-----------0-----------0-----------0-------|
A|-------9-----------9-----------9-----------9----|-------7-----------7-----------7-----------7----|
E|-7-----------7-----------7-----------7----------|-5-----------5-----------5-----------5----------|

E|------------------------------------------------|------------------------------------------------|
B|------------------------------------------------|------------------------------------------------|
G|----------0-----------0-----------0-----------0-|----------0-----------0-----------0-----------0-|
D|----0-----------0-----------0-----------0-------|----0-----------0-----------0-----------0-------|
A|-------5-----------5-----------5-----------5----|-------5-----------5-----------5-----------5----|
E|-3-----------3-----------3-----------3----------|-3-----------3-----------3-----------3----------|

Daddy's ghost behind you
Sleeping dog beside you
You're a poem of mystery
You're the prayer inside me

[Chorus] x2
E |------------------------------------------------|------------------------------------------------|
B |----------------------0-------------------------|------------------------------------------------|
G |----------0-----------------------0-----------0-|----------0-----------0-----------0-----------0-|
D |----0-----------0-----------0-----------0-------|----0-----------0-----------0-----------0-------|
A |-------12----------12----------12----------12---|-------7-----------7-----------7-----------7----|
E |-10----------10----------10----------10---------|-5-----------5-----------5-----------5----------|

E |------------------------------------------------|------------------------------------------------|
B |------------------------------------------------|------------------------------------------------|
G |----------0-----------0-----------0-----------0-|----------0-----------0-----------0-----------0-|
D |----0-----------0-----------0-----------0-------|----0-----------0-----------0-----------0-------|
A |-------5-----------5-----------5-----------5----|-------5-----------5-----------5-----------5----|
E |-3-----------3-----------3-----------3----------|-3-----------3-----------3-----------3----------|

Spoken words like moonlight
You're the voice that I like.

[Verse] x4
Needlework and seedlings
In the way you're walking
To me from the Timbers
Faded from the winter

            
            
Suggest correction
Creating personal tab
Creating personal tab
You can edit any tab online and save it as your Personal.

You can edit, replace or remove any tab part or add personal notes – all changes will be seen only by you.

Personal tabs can be accessed anytime from any device, even offline.
Learn more »
comments
print report bad tab
4 comments total. Showing first comments.
0 reply
theratking 31 Aug 27, 2009 07:06 PM

If you put this in drop d it makes the song much easier to play

0 reply
multimediaspeak 132 Sep 03, 2009 03:47 PM

i dont know what you ^ mean about drop d.. but anyway during the chorus at the high part when adding the high b string to the pattern i actually use my middle finger to fret it at the tenth.. i think it kind of replicates the second guitar-- anyway good tab

0 reply
outlet 30 Sep 28, 2009 07:56 PM

haven't tried it yet, but it all makes sense to me. i really overthought on this one.

guest
You may want to rate the tab now too:
select rating
Wanna post a correction for this tab? Suggest correction