Oops, an error
Loading. Please wait.

Passing Afternoon tab

6,255 views 6 this week
1 commentread comment
1 2 3 4 5
x 5
add to favorites
×
Save as Personal and add changes to this tab that will be seen only by you. Learn more ›
×
You can save this tab as Personal to edit and correct it or add notes. All changes will be seen only by you. Learn more »
launch autoscroll
font size
0
reset
how to read this tab
guitar tuner
edit
Autoscroll
slow
fast
+/-
esc
set tempo
stop
Drop D like so many of the other songs off "Endless Numbered Days". The G chord is never
fully strummed. Rather, a bass line that peddles the open strings is played. The C is a
Cmaj7 and technically the D is Dmaj6 removing the high E string entirely from the chord 
and in this case removing the B to open. But unless you strike the open B as clearly as
he does, it sounds fine as just a Dadd9. The clear striking of the open B is something 
he uses sparingly and it seems to slowly disappear as the arrangement continues. So strum 
each chord and strike the B at your own judgment to mimic the song.

Here is what I play. Remember, Drop D with a 2nd fret capo is required.


    Cmaj7        D6                 G
---------------------------------------------------|
---0---0--0------------0-----0------0----0---0-----|
---0---0------------2--------0------0----0---0-----|
---2---2--------0---0------------------------------|
---3---3--------0---0-----------0------2-----------|
----------------0---0------5----------------5------|

    Cmaj7          G              D6
----------------------------------------------------|
---0---0--0---0----0---0---0-----------0------------|
---0---0------0----0---0---0--------2---------------|
---2---2------------------------0---0---------------|
---3---3--------0----2----------0---0---------------|
-------------5-----------5------0---0---------------|

    Cmaj7      Dadd9
---------------------------------------------------|
---0-0-0-0---3-3-3-3-------------------------------|
---0-0-0-0---2-2-2-2------repeat entire song-------|
---2-2-2-2---0-0-0-0-------------------------------|
---3-3-3-3---0-0-0-0-------------------------------|
-------------0-0-0-0-------------------------------|

            
            
Suggest correction
Creating personal tab
Creating personal tab
You can edit any tab online and save it as your Personal.

You can edit, replace or remove any tab part or add personal notes – all changes will be seen only by you.

Personal tabs can be accessed anytime from any device, even offline.
Learn more »
comments
print report bad tab
1 comment total.
0 reply
wbalston 211 Sep 12, 2013 09:11 PM

good. gooooooood. thank you. so many little variations though grr

guest
You may want to rate the tab now too:
select rating
Wanna post a correction for this tab? Suggest correction