Oops, an error
Loading. Please wait.

Sing Song Bird tab

46 views 3 this week
no commentswrite comment
1 2 3 4 5
1 last vote to show rating
add to favorites
×
Save as Personal and add changes to this tab that will be seen only by you. Learn more ›
×
You can save this tab as Personal to edit and correct it or add notes. All changes will be seen only by you. Learn more »
launch autoscroll
font size
0
reset
how to read this tab
guitar tuner
edit
Autoscroll
slow
fast
+/-
esc
set tempo
stop
About this tab version
Only the guitar picking parts (no slide guitar or mandolin). Was this info helpful? Yes No
[Intro]
   C                 C
D#|-----------------|-----------------|
A#|----1---1---1---1|----1---1---1---1|
F#|--0---0---0---0--|--0---0---0---0--|
C#|---2---2---2---2-|---2---2---2---2-|
G#|-3-------3-------|-3-------3-------|
D#|-----3-------3---|-----3-------3---|

[Verse]
   C                 C
D#|-----------------|-----------------|
A#|----1---1---1---1|----1---1---1---1|
F#|--0---0---0---0--|--0---0---0---0--|
C#|---2---2---2---2-|---2---2---2---2-|
G#|-3-------3-------|-3-------3-------|
D#|-----3-------3---|-----3-------3---|
Give me your shoulder, I'm a sing song bird,
My savior says that I'm the words

   F        G        C
D#|----1-------3----|-----------------|
A#|-----------------|----1---1---1---1|
F#|--2---2---4---4--|--0---0---0---0--|
C#|---3---3---5---5-|---2---2---2---2-|
G#|-----------------|-3-------3-------|
D#|-1---1---3---3---|-----3-------3---|
I map across a daylight blinding you

   C                 C
D#|-----------------|-----------------|
A#|----1---1---1---1|----1---1---1---1|
F#|--0---0---0---0--|--0---0---0---0--|
C#|---2---2---2---2-|---2---2---2---2-|
G#|-3-------3-------|-3-------3-------|
D#|-----3-------3---|-----3-------3---|
Chicken-boned and with a ten-cent bunk
Claimed Jesus spoke, though I was drunk

   F        G        C
D#|----1-------3----|-----------------|
A#|-----------------|----1---1---1---1|
F#|--2---2---4---4--|--0---0---0---0--|
C#|---3---3---5---5-|---2---2---2---2-|
G#|-----------------|-3-------3-------|
D#|-1---1---3---3---|-----3-------3---|
Untied my shoe and told me what to do

[Chorus]
   F        G        C
D#|----1-------3----|-----------------|
A#|-----------------|----1---1---1---1|
F#|--2---2---4---4--|--0---0---0---0--|
C#|---3---3---5---5-|---2---2---2---2-|
G#|-----------------|-3-------3-------|
D#|-1---1---3---3---|-----3-------3---|
Warn the boys about the dimmer rooms
That try to woo them all with their cheap perfume

   F        G        C
D#|----1-------3----|-----------------|
A#|-----------------|----1---1---1---1|
F#|--2---2---4---4--|--0---0---0---0--|
C#|---3---3---5---5-|---2---2---2---2-|
G#|-----------------|-3-------3-------|
D#|-1---1---3---3---|-----3-------3---|
Rooms like this, a pathway to the fall

   F        G        C
D#|----1-------3----|-----------------|
A#|-----------------|----1---1---1---1|
F#|--2---2---4---4--|--0---0---0---0--|
C#|---3---3---5---5-|---2---2---2---2-|
G#|-----------------|-3-------3-------|
D#|-1---1---3---3---|-----3-------3---|
Warn the girls about the dimmer stars
That try to woo them all with the cheap guitars

   F        G        C
D#|----1-------3----|-----------------|
A#|-----------------|----1---1---1---1|
F#|--2---2---4---4--|--0---0---0---0--|
C#|---3---3---5---5-|---2---2---2---2-|
G#|-----------------|-3-------3-------|
D#|-1---1---3---3---|-----3-------3---|
The morning fades the glitter on their song

[Instrumental]
   C                 C                 F        G        C
D#|-----------------|-----------------|----1-------3----|-----------------|
A#|----1---1---1---1|----1---1---1---1|-----------------|----1---1---1---1|
F#|--0---0---0---0--|--0---0---0---0--|--2---2---4---4--|--0---0---0---0--|
C#|---2---2---2---2-|---2---2---2---2-|---3---3---5---5-|---2---2---2---2-|
G#|-3-------3-------|-3-------3-------|-----------------|-3-------3-------|
D#|-----3-------3---|-----3-------3---|-1---1---3---3---|-----3-------3---|  (x2)

[Chorus]
   F        G        C
D#|----1-------3----|-----------------|
A#|-----------------|----1---1---1---1|
F#|--2---2---4---4--|--0---0---0---0--|
C#|---3---3---5---5-|---2---2---2---2-|
G#|-----------------|-3-------3-------|
D#|-1---1---3---3---|-----3-------3---|
Warn the boys about the dimmer rooms
That try to woo them all with their cheap perfume

   F        G        C
D#|----1-------3----|-----------------|
A#|-----------------|----1---1---1---1|
F#|--2---2---4---4--|--0---0---0---0--|
C#|---3---3---5---5-|---2---2---2---2-|
G#|-----------------|-3-------3-------|
D#|-1---1---3---3---|-----3-------3---|
The sun don't sweat the souls that get the call

   F        G        C
D#|----1-------3----|-----------------|
A#|-----------------|----1---1---1---1|
F#|--2---2---4---4--|--0---0---0---0--|
C#|---3---3---5---5-|---2---2---2---2-|
G#|-----------------|-3-------3-------|
D#|-1---1---3---3---|-----3-------3---|
Warn the girls about the dimmer stars
That try to woo them all with the cheap guitars

   F        G        C
D#|----1-------3----|-----------------|
A#|-----------------|----1---1---1---1|
F#|--2---2---4---4--|--0---0---0---0--|
C#|---3---3---5---5-|---2---2---2---2-|
G#|-----------------|-3-------3-------|
D#|-1---1---3---3---|-----3-------3---|
Dear Lord, give me the strength to shade you all

            
            
Suggest correction
Creating personal tab
Creating personal tab
You can edit any tab online and save it as your Personal.

You can edit, replace or remove any tab part or add personal notes – all changes will be seen only by you.

Personal tabs can be accessed anytime from any device, even offline.
Learn more »
Give kudos to tab author, rate the tab!
1 2 3 4 5
comments
print report bad tab
guest
You may want to rate the tab now too:
select rating
Wanna post a correction for this tab? Suggest correction