Oops, an error
Loading. Please wait.

Tree By The River tab

version 1
version 1

Whole song

  • This version is on standard tuning, in case you do... Show more
32,048 views 9 this week
1 commentread comment
1 2 3 4 5
x 5
add to favorites
×
Save as Personal and add changes to this tab that will be seen only by you. Learn more ›
×
You can save this tab as Personal to edit and correct it or add notes. All changes will be seen only by you. Learn more »
launch autoscroll
font size
0
reset
how to read this tab
guitar tuner
edit
Autoscroll
slow
fast
+/-
esc
set tempo
stop
Author
Difficulty
About this tab version
This version is on standard tuning, in case you don't have a capo, and I have added the solos from the album version. Was this info helpful? Yes No
[Intro]

e|-----------|--------------|
B|-----------|--------------|
G|-----------|--------------|
D|---------8-|------------8-|
A|-----------|-------8-10---|
E|-(6)-------|-(6)----------|


Bb                     Eb                      Cm                    Bb
e|--------------------|----------------------|----------------------|---------------------|
B|--------------------|----------------------|----------------------|---------------------|
G|--------------------|----------------------|----------------------|---------------------|
D|--------------------|----------------------|----------------------|---------------------|
A|---8--10-10s12-10-8-|---10--12-12s13-12-10-|---10--12-12s13-12-10-|---8--10-10s12-10-8--|
E|--------------------|----------------------|----------------------|---------------------| x2


[Verse 1]
Bb                    Eb
   Maryanne, do you remember
                 Cm
the tree by the river
                 Bb
when we were seventeen
Bb                                   Eb
  Dark canyon wall, the call and the answer
                    Cm
and the mare in the pasture
                           Bb
pitch black and baring its teeth
Bb                        Eb
  I recall the sun in our faces
                      Cm
stuck and leaning on braces
                        Bb
and being strangers to change
Bb                             Eb
  Radio and the bones we found frozen
                           Cm
and all the thorns and the roses
                    Bb
beneath your window pane


[Chorus 1]
Eb                      Bb
   Now I'm asleep in a car, I mean the world
       Cm
to a potty mouthed girl,
                            Bb
a pretty pair of blue-eyed birds.
Eb                        Bb
   "Time isn't kind or unkind," you liked to say.
      Cm
But I wonder to who
                             Bb
And what it is you're saying today.


[Solo]

Bb                                           Eb
e|------------------------------------------|-----------------------------|
B|------------------------------------------|-----------------------------|
G|---------3---------3---------3---------3--|--5b7-br5p3-----3h5--5b7br-3-|
D|--3h(4)h5---3h(4)h5---3h(4)h5---3h(4)h5---|-----------/5---5----------5-|
A|------------------------------------------|-----------------------------|
E|------------------------------------------|-----------------------------|

Cm                        Bb
e|------------------------|------------------|
B|------------------------|------------------|
G|-3/5-3-----3/5-5/7-7b8br|----------3-5-3--3|
D|------5-3-5-------------|8------3h5------5-|
A|------------------------|------------------|
E|------------------------|------------------|

Bb                                          Eb
e|------------------------------------------|-----------------------------|
B|------------------------------------------|-----------------------------|
G|---------3---------3---------3---------3--|--5b7-br5p3-----3h5--5b7br-3-|
D|--3h(4)h5---3h(4)h5---3h(4)h5---3h(4)h5---|-----------/5---5----------5-|
A|------------------------------------------|-----------------------------|
E|------------------------------------------|-----------------------------|

Cm                        Bb
e|------------------------|----------|
B|------------------------|----------|
G|-3/5-3-----3/5-5/7-7b8br|----------|
D|------5-3-5-------------|8---------|
A|------------------------|----------|
E|------------------------|----------|


[Chorus 2]
Eb                      Bb
   Now I'm asleep in a car, I mean the world
       Cm
to a potty mouthed girl,
                            Bb
a pretty pair of blue-eyed birds.
Eb                        Bb
   "Time isn't kind or unkind," you liked to say.
      Cm
But I wonder to who
                             Bb
And what it is you're saying today.


[Verse 1]
Bb                    Eb
   Maryanne, do you remember
                 Cm
the tree by the river
                 Bb
when we were seventeen
Bb                                    Eb
  Dark canyon road, I was coy in the half-moon
                  Cm
happy just to be with you
                      Eb
and you were happy for me

***********************************
| /   Slide up
| \   Slide down
| h   Hummer-on
| p   Pull-off
| b   Bend
| br  Bend release
***********************************

            
            
Suggest correction
Creating personal tab
Creating personal tab
You can edit any tab online and save it as your Personal.

You can edit, replace or remove any tab part or add personal notes – all changes will be seen only by you.

Personal tabs can be accessed anytime from any device, even offline.
Learn more »
comments
print report bad tab
1 comment total.
+1 reply
Neandertalaren 126 Feb 02, 2011 09:41 AM

Perfect tab!

guest
You may want to rate the tab now too:
select rating
Wanna post a correction for this tab? Suggest correction