Oops, an error
Loading. Please wait.

Upward Over The Mountain tab

version 4
version 4

Whole song

64,711 views 57 this week
3 commentsread comments
1 2 3 4 5
x 19
add to favorites
×
Save as Personal and add changes to this tab that will be seen only by you. Learn more ›
×
You can save this tab as Personal to edit and correct it or add notes. All changes will be seen only by you. Learn more »
launch autoscroll
font size
0
reset
how to read this tab
guitar tuner
edit
Autoscroll
slow
fast
+/-
esc
set tempo
stop
Author
Tuning: Standard

[Intro]
e|---------------------------------------------------------------------------|
B|----------0~----------------0~----------------0~----------------0~---------|
G|--0-----0------0-(0)------0------0--0-------0------0-(0)------0------0--0--|
D|---------------------2-----------------------------------4(4)----------4---|
A|----(2)---------(2)--3(3)---------(3)--2------------(2)-/5(5)--------------|
E|---0~----------------------------------3(3)--------------------------------|

e|---------------------------------------------------------------------------|
B|----------0~----------------0~----------------0~----------------0~---------|
G|--------0------0-(0)------0------0--0-------0------0-(0)------0------0--0--|
D|---5------------(5)--2-----------------------------------4(4)----------4---|
A|(/)7(7)---------(7)--3(3)---------(3)--2------------(2)--5(5)----------5---|
E|---------------------------------------3(3)--------------------------------|

[Verse/Chorus]
(guitar 1)
(lightly pick bass notes)
e|---------------------------------------------------------------------------|
B|---------(0)-------0-------(0)-------0-------(0)-------0--------0--------0-|
G|--------0--------0--------0--------0--------0--(0)---0--------0--------0---|
D|--------------------(2)------(2)------------------------(4)-4----(4)-------|
A|--(2)---------------(3)(3)------(3)----------------------5----------(5)----|
E|---0-(0)---(0)(0)---------------------(3)---------(3)----------------------|
 
[guitar 2]
(palmmute/flatpick)
e|---------------------------------------------------------------------------|
B|---------------------------------------------------------------------------|
G|---------------------------------------------------------------------------|
D|-------------------------------------------------------0---0--0-0-0--0-0---|
A|---2--2-5-2-2--2-5-10--10-121010-10125---5--7-5-5--5-7-0---0--2-0-0--0-2---|
E|---0--0-0-0-0--0-0-8---8--8-8-8--8-8-3---3--3-3-3--3-3---------------------|

[guitar 1]
e|---------------------------------------------------------------------------|
B|---------(0)-------0-------(0)-------0-------(0)-------0--------0--------0-|
G|--------0---(0)--0--------0--------0--------0--(0)---0--------0--------0---|
D|---5-----------5----(2)------(2)------------------------(4)-4----(4)-------|
A|--(7)-7-------------(3)(3)------(3)----------------------5----------(5)----|
E|--------------------------------------(3)---------(3)----------------------|
 
[guitar 2]
e|---------------------------------------------------------------------------|
B|---------------------------------------------------------------------------|
G|---------------------------------------------------------------------------|
D|-------------------------------------------------------0---0--0-0-0--0-0---|
A|---2--2-5-2-2--2-5-10--10-121010-10125---5--7-5-5--5-7-0---0--2-0-0--0-2---|
E|---0--0-0-0-0--0-0-8---8--8-8-8--8-8-3---3--3-3-3--3-3---------------------|

[Verse]
Mother don't worry, I killed the last snake that lived in a creek bed
Mother don't worry, I got some money I saved for the weekend
Mother remember being so stern with the girl who was with me
Mother remember the blink of an eye when I breathed through your body

[Chorus]
So may the sun/son rise bring hope where it once was forgotten
Suns/sons are like birds, flying upwards over the mountain

[Verse]
Mother I made it up from the bruise on the floor of this prison
Mother I lost it all to the fear of the Lord I was given.
Mother forget me now, the creek drank the cradle you sang to
Mother forgive me I sold your car for the shoes that I gave you

[Chorus]
So may the sun/son rise bring hope where it once was forgotten
Suns/sons can be birds, taken broken up to the mountain

[Verse]
Mother don't worry, I've got a cup and some friends on the corner
Mother don't worry she's got a garden and we're planting it together

[Bridge]
Mother remember the night when the dog had her pups in the pantry,
Blood on the floor fleas on their paws and you cried till the morning.
So may the sun/son rise bring hope where it once was forgotten
Suns/sons are like birds, flying always over the mountain.


************************************

| ~    Vibrato
| (n)  Ghost note
| /    Slide up
************************************

            
            
Suggest correction
Creating personal tab
Creating personal tab
You can edit any tab online and save it as your Personal.

You can edit, replace or remove any tab part or add personal notes – all changes will be seen only by you.

Personal tabs can be accessed anytime from any device, even offline.
Learn more »
comments
print report bad tab
3 comments total.
0 reply
kustomjarvis 81 Dec 26, 2007 07:32 AM

sorry i got a little bit rushed with this one

the fourth D progression at the end of the guitar 2 measure in the
verse/chorus is

e|----------------------|
B|----------------------|
G|----------------------|
D|-0---0--4-0-0--0-4-0--|
A|-5---5--5-5-5--5-5-5--|
E|-5---5--5-5-5--5-5-5--|

0 reply
wiggyisgreat 728 Jun 24, 2008 04:55 AM

good tab thanks a lot =)

0 reply
Ironandwine45 10 Dec 24, 2008 08:44 AM

the slide part is played on a 12 string but it sounds ok on a 6 string

G|------5/7---4----5/7---5----5/7---4----4/7---2-----5/7---4----5/7--
D|------------------------------------------------------------------

G|5----5/7---4----4/7---2---0-2-4---2-4--5--7-7-7/5-5/4--2-0-2---0-2-4
D|------------------------------------------------------------------

G|--2-4--5--7-7-7/5-5/4--2-0-2---2-0--0-----------|
D|-----------------------------------4------------

guest
You may want to rate the tab now too:
select rating
Wanna post a correction for this tab? Suggest correction