Oops, an error
Loading. Please wait.

Upward Over The Mountain tab

version 5
version 5

Whole song

22,441 views 12 this week
2 commentsread comments
1 2 3 4 5
x 9
add to favorites
×
Save as Personal and add changes to this tab that will be seen only by you. Learn more ›
×
You can save this tab as Personal to edit and correct it or add notes. All changes will be seen only by you. Learn more »
launch autoscroll
font size
0
reset
how to read this tab
guitar tuner
edit
Autoscroll
slow
fast
+/-
esc
set tempo
stop
----------------------------------------------------------------------------
                             Upward Over The Mountain - Iron and Wine
----------------------------------------------------------------------------

Tabbed by: Ryan Gamboa

This is a live acoustic version of the song, tabbed off a Chicago show I attended 
at the Lakeshore theatre.

(Capo 4th fret)

Em                     C
e|----------0---------|-----------3--------------|
B|--0-----------------|--1-----------------------|
G|-----0--------0-----|-----0----------0---------|
D|--------2--------2--|--------2----------2------|
A|--2---------2-------|--3-----------3-----------|
E|--------------------|--------------------------|

G                          D
e|-----------1------------|--2------0--------------|
B|--0---------------------|-----3------------------|
G|-----0-----------0------|-------2----2-----------|
D|--------0-----------0---|--0-----------0---------|
A|-------------0h2--------|----------0-------------|
E|--3---------------------|------------------------|

Solo/Fill
e|-----------------------|
B|--1--------------------|
G|-----------------------|
D|-----0h2--5/7--5-------|
A|--3--------------------|
E|-----------------------|


Intro
--------

Em  C  G  D  (x2)

Em            C                  G                          D
Mother don't worry, I killed the last snake that lived in a creek bed
Mother don't worry, I got some money I saved for the weekend
Mother remember being so stern about the girl who was with me
Mother remember the blink of an eye when I breathed through your body

Em            C            G                     D
So may the sunrise spring hope where it once was forgotten
Sons are like birds, flying upwards over the mountain

(Repeat Pattern)

Mother I made it up from the bruise of a floor of this prison
Mother I lost it, all of the fear of the Lord I was given
Mother forget me now that the creek drank the cradle you sang to
Mother forgive me, I sold your car for the shoes that I gave you

So may the sunrise spring hope where it once was forgotten
Sons can be birds, taken broken up to the mountain

Em  Solo/Fill  G   D
Em  C  G  D


Em            C               G                             D
Mother don't worry, I've got a coat & some friends on the corner
Mother don't worry, she's got a garden we're planting together
Mother remember the night that the dog had her pups in the pantry?
Blood on the floor & the fleas on their paws and you cried 'til the morning

Em            C            G                     D
So may the sunrise bring hope where it once was forgotten
Sons are like birds flying always over the mountain

Em  C  G  D
Em  C  G  D  Em





            
            
Suggest correction
Creating personal tab
Creating personal tab
You can edit any tab online and save it as your Personal.

You can edit, replace or remove any tab part or add personal notes – all changes will be seen only by you.

Personal tabs can be accessed anytime from any device, even offline.
Learn more »
comments
print report bad tab
2 comments total.
-1 reply
Bobsuncle1 10 Apr 22, 2013 12:35 AM

Nothing major, a perfectly fine tab for a nice, simple song. However I play it as D/F# (relative to CAPO) instead of D because it gives a nice run down on the E string.

0 reply
roadinon 10 Aug 26, 2017 11:49 AM

Great tab. Thanks!

guest
You may want to rate the tab now too:
select rating
Wanna post a correction for this tab? Suggest correction