Oops, an error
Loading. Please wait.

Kaali Ratein tab

by Irtaash
1,295 views 1 this week
4 commentsread comments
1 2 3 4 5
3 more votes to show rating
add to favorites
×
Save as Personal and add changes to this tab that will be seen only by you. Learn more ›
×
You can save this tab as Personal to edit and correct it or add notes. All changes will be seen only by you. Learn more »
launch autoscroll
font size
0
reset
how to read this tab
guitar tuner
edit
Autoscroll
slow
fast
+/-
esc
set tempo
stop
Author
Difficulty
allright....here's how it goes....
this song is not that hard to play actaully....
i am a rhythm guy...so, i m posting in the rhythm portion..

Intro :


e---------------------------------|
b---------------------------------|
G---------------------------------|
D--------6--------------2---------|
A--------6--------------2---------|
E---4-------------0---------------|


e-----------------------------------|
b-----------------------------------|
G-----------------------------------|
D----------4------------------------|
A----------4------------------------|
E---2-------------------------------|

the intro basically lies in these.... G#5 - E5 - F#5

thats the intro....
then, the Daaadunnn dannn !!! comes in...lol
yeah, i am talking about the distorted strum..

its G#5
e--------------------------------|
b--------------------------------|
G--------------------------------|
D--------6-----------------------|
A--------6-----------------------|
E---4----------------------------|


allright...now coming to the rhythm.....

the first distorted portion is G#5 - B5 - C#5

if you know the chords...they can be played in two different ways....

G#5 - B5 - C#5
this is the easiest one to play...
e-----------------------------------|
b-----------------------------------|
G------------------------------11---|
D--------6------------9--------11---|
A--------6------------9-------------|
E---4-------------7----------9------|

other positions are

G#5 - B5 - C#5
e---------------------------------------|
b---------------------------------------|
G-------------------------4---------6---|
D--------6----------------4---------6---|
A--------6-----------2----------4-------|
E---4-----------------------------------|


ok...thats the basic....
now i will post my " assumptions "
yeah man !!....irtaash guys really rock !!
i mean, after EP...this is the only band so far that looks promising.... :)
anywayz....

when the vocalist starts singing... " kaali kaali raatoun mein..."

here, you can play

G#5 - E5 - F#5

then


G#5 - B5 - C#5

here it is guys.....
this sounds really good...only if you play it well ... :)
do leave some comments .... pleasE !!!!
and ohh !!! GOT A BETTER VERSION ?? DO POST IT !!! :D

you can contact me  hashimkhaan@hotmail.com

bumps up and thumbs up guys !!!!
we all rock !!!!!!!!!!!!!!!! ;)

            
            
Suggest correction
Creating personal tab
Creating personal tab
You can edit any tab online and save it as your Personal.

You can edit, replace or remove any tab part or add personal notes – all changes will be seen only by you.

Personal tabs can be accessed anytime from any device, even offline.
Learn more »
Give kudos to tab author, rate the tab!
1 2 3 4 5
comments
print report bad tab
4 comments total. Showing first comments.
-1 reply
bbbeeee 10 Dec 31, 2008 08:21 PM

poor tab!!!!

+1 reply
hashemkhaan 61 Jan 05, 2009 08:29 AM

you would have posted a better one...only IFFF you could...man !!if theres a mistake...point it out :P

0 reply
msaadkhan93 10 Apr 09, 2009 10:41 AM

i think the intro is this

e------------------------------------------------------|
b------------------------------------------------------|
G------------------------------------------------------|
D---------7-----------7-----------3------------5-------|
A------7-----7------7---7------3-----3------5-----5----|
E---5------------5----------1------------3-------------|

guest
You may want to rate the tab now too:
select rating
Wanna post a correction for this tab? Suggest correction