Oops, an error
Loading. Please wait.

Turn Of The Century bass

by Irving
111 views 1 this week
no commentswrite comment
1 2 3 4 5
3 more votes to show rating
add to favorites
×
Save as Personal and add changes to this tab that will be seen only by you. Learn more ›
×
You can save this tab as Personal to edit and correct it or add notes. All changes will be seen only by you. Learn more »
launch autoscroll
font size
0
reset
guitar tuner
edit
Autoscroll
slow
fast
+/-
esc
set tempo
stop
-----------------------------------------------------------------
             Irving - Turn of the Century Bass Tab
-----------------------------------------------------------------
Album: Good Morning Beautiful
Tabbed By Josh Cortes (banjoplayer123)(or joshcortes@gmail.com)
Standard Tuning (EADG)

Intro/Main Riff:
(played with some weird sub-octave effect or something.
 whatever it is it's one octave lower than this.)

G|-0---0---0---0------------------------------------------------------|
D|--------------(0)-4---4---4---4-(0)-2---2---2---2-(2)-0---0---0---0-|
A|--------------------------------------------------------------------|
E|--------------------------------------------------------------------|


G|----------------------------------------------------------------------|
D|---------------------------------------------------------0----0-0-2-4-|
A|-(0)-3---3---3---3-(0)-2---2---2---2-(2)-0-----0-0-2-4----------------|
E|----------------------------------------------------------------------|

just figure out how many times to repeat it.
if you have questions, comments, corrections etc. 
just send me a message, leave me a comment or e-mail me.
enjoy!


            
            
Suggest correction
Creating personal tab
Creating personal tab
You can edit any tab online and save it as your Personal.

You can edit, replace or remove any tab part or add personal notes – all changes will be seen only by you.

Personal tabs can be accessed anytime from any device, even offline.
Learn more »
Give kudos to tab author, rate the tab!
1 2 3 4 5
comments
print report bad tab
guest
You may want to rate the tab now too:
select rating
Wanna post a correction for this tab? Suggest correction