Oops, an error
Loading. Please wait.

Darkness tab

184 views 1 this week
no commentswrite comment
1 2 3 4 5
2 more votes to show rating
add to favorites
×
Save as Personal and add changes to this tab that will be seen only by you. Learn more ›
×
You can save this tab as Personal to edit and correct it or add notes. All changes will be seen only by you. Learn more »
launch autoscroll
font size
0
reset
how to read this tab
guitar tuner
edit
Autoscroll
slow
fast
+/-
esc
set tempo
stop
About this tab version
How I played it in my cover. Was this info helpful? Yes No
Islander: Darkness

Transcribed by: mysticguitar77

Facebook: https://www.facebook.com/MysticGuitar77
YouTube Channel: https://www.youtube.com/user/MysticGuitar77

Date last modified: December 12, 2016

Tuning: Drop B (B,F#,B,E,G#,C#)

Intro
C#|-------------|
G#|-------------|
 E|-------------|
 B|-------------|
F#|-------------|
 B|-2-3-2-0-2-3-|

Riff 1   "I'm into darkness..."
C#|--------------------------------------------------------------------|
G#|--------------------------------------------------------------------|
 E|---------------13b-13-13-13-13/14-14b---------------10--10--10------|
 B|-2-3-2-0-2-3-0-x---x--x--x--x--x--x---2-3-2-0-2-3-0-9---9---9-------|
F#|-2-3-2-0-2-3-0-11b-11-11-11-11/12-12b-2-3-2-0-2-3-0-8---8---8----\\-|
 B|-2-3-2-0-2-3-0------------------------2-3-2-0-2-3-0--------------\\-|

Play Riff 1 x2   "I'm into darkness..." (ending chord gets played in additional 2 times last time)

Riff 2 (w/ phaser)   "I'm disobedient, quick to speak, and slow to listen..."
C#|-------------------------------------|
G#|-------------------------------------|
 E|-8b-8b-8b-8b-8b-8b-8r-8r-8r-8r-8r-8r-|
 B|-------------------------------------| just keep picking this note while slightly bending
F#|-------------------------------------| and releasing it
 B|-------------------------------------|

Riff 3   "I'm into blood and fire..."
C#|------------------------------------------------------------------------------------4*-4*-4*-|
G#|------------------------------------------------------------------------------------4*-4*-4*-|
 E|------------------------------------------------------------------------------------4*-4*-4*-|
 B|------------------------------------------------------------------------------------4*-4*-4*-|
F#|---------------------------------------------------------------------------------------------|
 B|-2b-3-2-0-2-3--2b-3-2-0-2-3--2b-3-2-0-2-3--2b-3-2-0-2-3--2b-3-2-0-2-3--2b-3-2-0-2-3----------|
           *             *             *             *             *             *

Play Riff 1 x2   "I'm into darkness..."
Play Riff 2 x1   "I'm a slave to the bottle..."
Play Riff 3 x1   "I'm into death and murder..."
Play Riff 1 x4   "I'm into darkness..."

Riff 4   "You can't change me..."
C#|-----------------------------------------------------------------|
G#|-----------------------------------------------------------------|
 E|-9-9-9-8-8-8-5-5-5-5-5-5-5-5-5-5-9-9-9-8-8-8-5-5-5-4-4-4-4-4-4-4-|
 B|-x-x-x-x-x-x-x-x-x-3-3-3-3-3-3-3-x-x-x-x-x-x-x-x-x-2-2-2-2-2-2-2-|
F#|-7-7-7-6-6-6-3-3-3-3-3-3-3-3-3-3-7-7-7-6-6-6-3-3-3-x-x-x-x-x-x-x-|
 B|-------------------3-3-3-3-3-3-3-------------------3-3-3-3-3-3-3-|

Play Riff 4 x4   "You can't change me..."

Riff 5   "You can't change me!!"
C#|-----------0---------------0---------------0---------------------|
G#|-----------0---------------0---------------0-------------0-0-0-0-|
 E|-----------3---------------3---------------3-------------3-3-3-4-|
 B|-2-3-2-0-2---3-0-2-3-2-0-2---3-0-2-3-2-0-2---3-0-2-3-2-0---------| ^ = strum with upstroke
F#|-2-3-2-0-2---3-0-2-3-2-0-2---3-0-2-3-2-0-2---3-0-2-3-2-0---------|
 B|-2-3-2-0-2---3-0-2-3-2-0-2---3-0-2-3-2-0-2---3-0-2-3-2-0---------|
              ^               ^               ^             

Play Riff 5 x4   "Don't try to change me cause this is who I am..."

Enjoy!!      


            
            
Suggest correction
Creating personal tab
Creating personal tab
You can edit any tab online and save it as your Personal.

You can edit, replace or remove any tab part or add personal notes – all changes will be seen only by you.

Personal tabs can be accessed anytime from any device, even offline.
Learn more »
Give kudos to tab author, rate the tab!
1 2 3 4 5
comments
print report bad tab
guest
You may want to rate the tab now too:
select rating
Wanna post a correction for this tab? Suggest correction