Oops, an error
Loading. Please wait.

Cemetery Weather tab

16,888 views 1 this week
2 commentsread comments
1 2 3 4 5
x 3
add to favorites
×
Save as Personal and add changes to this tab that will be seen only by you. Learn more ›
×
You can save this tab as Personal to edit and correct it or add notes. All changes will be seen only by you. Learn more »
launch autoscroll
font size
0
reset
how to read this tab
guitar tuner
edit
Autoscroll
slow
fast
+/-
esc
set tempo
stop
Tabbed By: Middaysilence
Isles and Glaciers 
"Cemetery Weather"
from the album 
The Hearts of Lonely People

ok, so im not 100% on this,
but its pretty close.
and the chord over the lyrics arent
exact, but close
Standard Tunning 

Intro
Am C F G (played through most of the song)

then the singing

Craig:

Am                C
I never knew what I would do 
      F                       G
If anybody tried to take you away
         Am                  C
And your beautiful boy won't wait for you
             F                          G
Because he's busy with the stars and the fame


Jonny:
    Am                  C  
And I don't know why I breathe
     F                   G    
It's taking too long for me
     Am                      C 
Can we speed up the process, please?
    F                 G
Or show me the one I need

little riff throughout verse and chorus 
|---------------------------------|
|---------------------------------|
|---------------------------------|
|---0-2--2------------------------|
|-3--------0---0------0-0h2-------|
|-----------------3---------------|
(though, it might be an octave higher,
or an octave chord. not too sure)

Chorus
Vic:

       Am
I need somebody (somebody) 
       C   
Somebody crazy enough to tell me
  F                   G
I will love you till we (I will love you till we)
            Am
Till we are buried

Our bodies (our bodies)
C                   
Our bodies buried close together
F
Cemetery weather
 G     
In the cemetery weather

 "crazy enough..."
|-17-15-13-12-10-12---------------|
|---------------------------------|
|---------------------------------|
|---------------------------------|
|---------------------------------|
|---------------------------------|


little thing after first verse
just listen for timing

gtr 1
|-------------------------|
|-13----8--10-------------|
|-------------------------|
|-------------------------|
|-------------------------|
|-------------------------|

gtr 2
|-------------------------|
|-5--5---8----------------|
|-------------------------|
|-------------------------|
|-------------------------|
|-------------------------|


Verse
(same as verse 1)

Jonny:
I never knew what I would do
If anybody tried to speak your name
I would tear down their house and
I'd burn my way around the brightest memory of your face
Cause I would do anything (anything, anything)
Cause love is a selfish thing (Don't get what you think)
And I'll feed off the wounds that bleed
And tear you away from me

Chorus
(same as first chorus)



after second chorus
                  vvvvvvvv (cant make that part out so well)
|---------------------------------|
|---------------------------------|
|-----4-5----4-5----4-5---4-5-----|
|---5------5------5-----5---------|
|-7-------------------------------|
|---------------------------------|


Bridge/Interlude thing
Am C Am F 
(that C isnt a normal C, 
it might be Cmaj7, or C/some chord,
it hard to tell, if you know please correct me!)

im not posting the lyrics for this part
cause im not too sure what they are.

then chrous again
and finally,

Outro

not too sure what happens here, 
but you mess around with that
|----------|
|-13-------|
|--x-------|
|-10-------|
|----------|
|----------|

after awhile it does that.
|-15--8--10--12--------|
|----------------------|
|----------------------|
|----------------------|
|----------------------|
|----------------------|


so yeah, i know there was a few uncertain parts,
but hey, i got the first tab up :D
so yeah, if theres any corrections, 
please dont hesitate to correct me!!
got any questions,
hit me up
mid_day_silence@hotmail.com

thanks <333


            
            
Suggest correction
Creating personal tab
Creating personal tab
You can edit any tab online and save it as your Personal.

You can edit, replace or remove any tab part or add personal notes – all changes will be seen only by you.

Personal tabs can be accessed anytime from any device, even offline.
Learn more »
Give kudos to tab author, rate the tab!
1 2 3 4 5
comments
print report bad tab
2 comments total.
0 reply
Coca30stmMCRFan 188 Aug 10, 2011 02:59 PM

From what I've heard the lyrics you're missing are as followed:
Violent delight we'll live as if we died violent delight live as if we died my violent delight live as if we died my violent delight live as if we died my violent delight violent delight ohh ohh ohh so come on come on I wont't leave without yoouu If we die then we die
and I'll sing this buried with you violent delight live as if we died my violent delight violent delight

And then the chorus repeats :)

0 reply
all-time-paris 56 May 25, 2014 11:46 PM

Don't quote me on this I could be wrong but I'm sure the little piano outro thing is
e |--17--15--13--12--10--12--13--12--|
B |----------------------------------|
G |----------------------------------|
D |----------------------------------|
A |----------------------------------|
E |----------------------------------|

guest
You may want to rate the tab now too:
select rating
Wanna post a correction for this tab? Suggest correction