Oops, an error
Loading. Please wait.

Si Peter Pan Viniera tab

36 views 1 this week
no commentswrite comment
1 2 3 4 5
3 more votes to show rating
add to favorites
×
Save as Personal and add changes to this tab that will be seen only by you. Learn more ›
×
You can save this tab as Personal to edit and correct it or add notes. All changes will be seen only by you. Learn more »
launch autoscroll
font size
0
reset
how to read this tab
guitar tuner
edit
Autoscroll
slow
fast
+/-
esc
set tempo
stop
Éste es un primer intento de transcribir la canción. En principio lo he
transcrito para dos guitarras (Ismael y Fredi Marugán en el concierto del
Conde-Duque, por ejemplo ;) pero si es para una sola, pues os recomiendo coger
la parte de los acordes y olvidar lo demás.

Acordes:
Lam  : x02210
Do   : X30210
Sol6 : 3x0200
Fa   : 132211
Sol  : 355433
Mim  : 022000
La-7/Fa : 1x2010
La-/Sol : 3x2210
Re /Fa# : 2x0232

Melodía del inicio adaptada a la guitarra:

|La-
|5-s8-7-5---5-(5)---------------------| |5-s8-7-5---5-(5)-------------------|
|---------8------8s10-8-----8-8--(10)-| |---------8-------8s10-8------------|
|-----------------------9-9-----------| |------------------------9-9-7------|
|-------------------------------------| |-----------------------------------|
|-------------------------------------| |-----------------------------------|

|La-
|-----------------------| |-----------------------|
|-5h6h8p6p5---6--5------| |-5h6h8p6p5---5---------|
|-----------7-------7---| |-----------7----7--5---|
|-----------------------| |-----------------------|
|-----------------------| |-----------------------|

|La-
|-----------------------| |----------------------------|
|-5h6h8p6p5---6--5------| |-5h6h8p6p5---5--------------|
|-----------7-------7---| |-----------7----7--5--7--9--|
|-----------------------| |----------------------------|
|-----------------------| |----------------------------|

Arpegio:
|La-          |La-7/Fa      |Do           |Sol6 (sólo la primera vez)  La 2ª vez: Sol 6
|-------------|-------------|---------0---|----------------|            |-----------------|
|------1------|------1------|------1h3-3--|------0h1p0-----|            |------0----------|
|----2---2-(2)|----0---0-(0)|----0-----(0)|----2-------0-0-|            |----2---2--------|
|--2------2---|--2------2---|--2----------|--0----------0--|            |--0-------0------|
|0------------|-------------|3------------|----------------|            |-----------------|
|-------------|1------------|-------------|3---------------|            |3----------------|

|Fa            |Sol            |Mi-          |Fa
|------1-------|--------3------|------0------|-------1---------|
|----1---1-(1)-|------3---3-(3)|----0---0-(0)|-----1---1---(1)-|
|--2------2----|----4------4---|--0------0---|---2-------2-----|
|--------------|---------------|-------------|-----------------|
|--------------|---------------|-------------|-----------------|
|1-------------|3--------------|0------------|1----------------|

(El mismo patrón de arpegio que esta segunda rueda
se utiliza en la tercera: Lam La-/Sol Re/Fa# Fa Sol6) Este Sol6,
a veces, es sólo de transición y no hace el arpegio completo)

LAm           LA-7/Fa     DO               SOL6
Si Peter Pan viniera a buscarme una noche azul,
LAm                   LA-7/Fa           DO            SOL6
   que me sorprenda a oscuras, por favor, que no dé la luz
                FA               SOL 
no vaya a descubrir que suelo mentir
              MIm        FA
cuando juro ser aún ese niño,
                                       SOL
quién le va a contar que en la gran ciudad
           MIm          FA   /SOL
no dejó ninguno, ni uno vivo
LAm                               LA-/SOL                RE/FA#
 estrellas fugaces, mi más breve instante respiran el humo
             FA           SOL6                  LAm
escuchan el mudo rumor que nace en sus vientres
                         LA-/SOL            RE/FA#
fueron arrojados al acantilado de la cruel favela,
              FA              SOL6
huyen de las hienas, de escuadrones de la muerte.

LAm

Intervalo
Acordes: Lam La-/Sol La-7/Fa Sol6 (x2) + la transición final (que no suena igual,
pero parecida) :p
|------------------------------|----------------------|----------------------------|-0-1-0-|
|--5---5--5---5--5-7--7s8-8-7-5|--5---5--5---5--s6-5--|5---5--5---5--5-7--7s8-8-7-5|-0-2-0-|
|----7------7------------------|----7------7---------7|--7------7------------------|-2-3-1-|
|------------------------------|----------------------|----------------------------|-0-0-2-|
|------------------------------|----------------------|----------------------------|-x---2-|
|5-----------------------------|----------------------|----------------------------|-3---0-|

LAm            LA-7/Fa     DO              SOL6
Si Peter Pan viniera a buscarme una noche azul,
LAm                  LA-7/Fa        DO                  SOL6
  que se extingan los soles, dónde diablos te esconderás tú,
           FA             SOL
Mowgly coserá botas en Ceilán
           MIm                   FA
no escuchará rugir de noche a Baghera
                                   SOL
Tom Sawyer reirá tras el humo del crack,
             MIm                  FA   /SOL
si en esta redada logra salvar la vida.

LAm            LA-7/Fa    DO              SOL6
Si Peter Pan viniera a buscarme una noche azul
LAm                 LA-7/Fa        DO           SOL6                
 que me sorprenda a oscuras, por favor, apaga la luz
               FA              SOL
si quieres evitar que la tempestad
            MIm                FA
le queme la fiebre de niños ancianos,
                   FA              SOL
quién le hará entender que el amanecer
               MIm               FA     /SOL
cierra con grilletes sus ojos cansados.

LAm                            LA-/SOL
   Niños que perdí, a los que mentí
           RE/FA#             FA         SOL6        LAm
gritan a lo lejos, arañan el hielo de la luz de la mañana
                              LA-/SOL               RE/FA#
Niños con espinas, con cuencas vacías que te lanzan piedras,
            FA       SOL                   LAm
tiñen las sirenas de todas las ambulancias.

Outro:
Acordes: Lam La-/Sol La-7/Fa Sol6 (x4)
|-------------------------------|-------------------------|-------------------------------|
|--5---5--5---5--5-7--7s8-8-7-5-|--5---5--5---5---s6-5----|--5---5--5---5--5-7--7s8-8-7-5-|
|----7------7-------------------|----7------7----------7--|----7------7-------------------|
|-------------------------------|-------------------------|-------------------------------|
|-------------------------------|-------------------------|-------------------------------|
|5------------------------------|5------------------------|5------------------------------|

|---------------------------------|----------------------------------------|
|--5---5--5---5--5-7--7s8-8s10-10-|--10----10--10----10-10-12--12s13-12-10-|
|----7------7---------------------|-----12--------12-----------------------|
|---------------------------------|----------------------------------------|
|---------------------------------|----------------------------------------|
|5--------------------------------|10--------------------------------------|

|----------------------------------------|
|--10----10--10----10-10-12--12s13-13s15-|
|-----12--------12-----------------------|
|----------------------------------------|
|----------------------------------------|
|10--------------------------------------|

Repite el interludio y acaba en:
|-------------------5--|
|------6------------5--|
|--s9-------s7--5---5--|
|-------------------7--|
|-------------------7--|
|-------------------5--|

Cualquier duda o correción, escribidla a pablo@ 
Para más tablaturas y acordes de Ismael:
Kilómetro 0

            
            
Suggest correction
Creating personal tab
Creating personal tab
You can edit any tab online and save it as your Personal.

You can edit, replace or remove any tab part or add personal notes – all changes will be seen only by you.

Personal tabs can be accessed anytime from any device, even offline.
Learn more »
Give kudos to tab author, rate the tab!
1 2 3 4 5
comments
print report bad tab
guest
Wanna post a correction for this tab? Suggest correction