Oops, an error
Loading. Please wait.

Un Muerto Encierras tab

22 views 1 this week
no commentswrite comment
1 2 3 4 5
3 more votes to show rating
add to favorites
×
Save as Personal and add changes to this tab that will be seen only by you. Learn more ›
×
You can save this tab as Personal to edit and correct it or add notes. All changes will be seen only by you. Learn more »
launch autoscroll
font size
0
reset
how to read this tab
guitar tuner
edit
Autoscroll
slow
fast
+/-
esc
set tempo
stop
G   = 320030
G/B = x20030
C7  = x32030
Am  = x02210
Am/G= 3x2210
D/F#= 2x023x
F   = 133211
C   = x32010
E7  = 020100

Verso.

E-------------------------------------------0------------
B-------3-------------3-------3-------3-----------3------
G-----0---0---0-----0---0---0-------0---0-----0-----0---0
D---0-------0-----0-------0-------2-------2-----2-----2--
A---------------2---------------3------------------------
E-3------------------------------------------------------

   G            G/B              C7

E--------------------------------------------------------
B-------3-------------3-------3-------3-----5---3--------
G-----0---0---0-----0---0---0-------0---0-----0---0------
D---0-------0-----0-------0-------2-------2--------------
A---------------2---------------3-----------3---2--------
E-3------------------------------------------------------

   G            G/B              C7

E--------------------------------------------------------
B-------1-------------1-------------3-------------3------
G-----2---2---2-----2---2---2-----2---2---2-----2---2----
D---2-------2-----2-------2-----0-------0-----0-------0--
A-0------------------------------------------------------
E---------------3-------------2-------------2------------

   Am           Am/G          D/F#

E----------------------------0-----------------------0-------------
B-------1--------1-----3-------1---3-----1-----3-------1---3-------
G-----2---2---2----0-----0-------2---0-----0-----0-------1---0---0-
D---3-------3--------2-----0-----------0-----2-----0-----------0---
A----------------3-----2-----0-----2-----3-----2-----0-----2-------
E-1----------------------------------------------------------------

   F              C    G/B    Am    G/B   C    G/B    Am    G/B

E--------------------------------------------------------
B-------1-------------1-------------3-------------3------
G-----2---2---2-----2---2---2-----2---2---2-----2---2----
D---2-------2-----2-------2-----0-------0-----0-------0--
A-0------------------------------------------------------
E---------------3-------------2-------------2------------

   Am           Am/G          D/F#

Estribillo.

E----------------------------------------------------------
B-------3-------------3-------------1--------------0-------
G-----0---0---0-----2---2---0-----2---2---2------1---1---1-
D---0-------0-----0-------0-----3-------3------0-------0---
A----------------------------------------------------------
E-3-------------2-------------1--------------0-------------

   G            D/F#           F              E7

E----------------------------------------------------------
B-------1-------------1-------------3--------------3-------
G-----2---2---2-----2---2---2-----2---2---2------2---2---2-
D---2-------2-----2-------2-----0-------0------0-------0---
A-0--------------------------------------------------------
E---------------3-------------2--------------2-------------

   Am           Am/G          D/F#

E----------------------------------------------------------
B-------3-------------3-------------1--------------0-------
G-----0---0---0-----2---2---0-----2---2---2------1---1---1-
D---0-------0-----0-------0-----3-------3------0-------0---
A----------------------------------------------------------
E-3-------------2-------------1--------------0-------------

   G            D/F#           F              E7

E----------------------------------------------------------
B-------1-------------1-------------3--------------3-------
G-----2---2---2-----2---2---2-----2---2---2------2---2---2-
D---2-------2-----2-------2-----0-------0------0-------0---
A-0--------------------------------------------------------
E---------------3-------------2--------------2-------------

   Am           Am/G          D/F#


Como tantas madrugadas encerrados en un coche
en una calle sin luz una calle sin nombre
los dos frente a frente se miran despacio,
tras dedicarse al amor y su trabajo
secan su sudor,  secan su sudor,
tal como han aprendido no han olvidado

Él piensa ya nada es lo de antes,
la vida debe estar en otra parte
donde no la divisa porque ella le ciega,
con cárceles de oro con amor sin tregua
ya nunca volverán, ya nunca volverán,
ya nunca volverán a hacer nada por vez primera

ataremos bandadas de gorriones a nuestras muñecas,
huiremos lejos de aquí a otro planeta
llévame donde no estés,
un muerto encierras.

Él le regala unas manos llenas de mentiras,
ya no le parece tan bello el cuerpo que acaricia
ayer eclipse de sol eran sus pupilas,
hoy son lagunas negras donde el mal se hacina
qué pena me da, que pena me da,
qué pena me da, todo se termina

ella ya no ama sus vicios le busca en los ojos,
pasa un ángel volando y se encuentra con otro
ayer sus dos brazos eran fuertes ramas,
donde guarecerse hoy son cuerdas que atan
qué pena me da,  que pena me da,
qué pena me da,  todo se acaba

ataremos bandadas de gorriones ...

él decide por fin vomitar las ideas,
ella lo sabe y tranquilamente lo espera
sin calma planea su fuga este preso,
ella no lo mira no aguanta su aliento
ya llegó el final y van a encontrar
en su corazón arena de desierto

perdida la calma se pone muy serio,
cunde el pánico y le invade un horrible miedo
su boca cobarde pronuncia te quiero,
no te vayas nunca,  no te vayas lejos
y ella echa a temblar, ella echa a temblar,
ella echa a temblar yo también te quiero

ataremos bandadas de gorriones ...

**************************************************************

Bueno, eso seria todo, debe estar lleno de errores, pero es la
primer tablatura que hago. De todos modos se acerca bastante a
la version de Atrapados en Azul. Cualquier duda, sugerencia o
comentario escribanme a neo_2097@

            
            
Suggest correction
Creating personal tab
Creating personal tab
You can edit any tab online and save it as your Personal.

You can edit, replace or remove any tab part or add personal notes – all changes will be seen only by you.

Personal tabs can be accessed anytime from any device, even offline.
Learn more »
Give kudos to tab author, rate the tab!
1 2 3 4 5
comments
print report bad tab
guest
Wanna post a correction for this tab? Suggest correction