Oops, an error
Loading. Please wait.

Ya Ves tab

version 1
version 1

Whole song

58 views 1 this week
no commentswrite comment
1 2 3 4 5
3 more votes to show rating
add to favorites
×
Save as Personal and add changes to this tab that will be seen only by you. Learn more ›
×
You can save this tab as Personal to edit and correct it or add notes. All changes will be seen only by you. Learn more »
launch autoscroll
font size
0
reset
how to read this tab
guitar tuner
edit
Autoscroll
slow
fast
+/-
esc
set tempo
stop
INTRO

e|-------------0----------------------------------------------|
B|---------0-------0--------0--------0--------4------8-----10-|
G|-------1---1---1---1--------0-------------6------5----7-----|
D|-----4------------------2--------4------6--------5----7-----|
A|---2------------------0--------2------4----------5----7-----|
E|-0----------------------------------------------------------|


e|-------------------------------------------2-----------------------|
B|9---7----3?--4---7---5---1?2---5-----5-4-----3---2---4---5----7----|
G|6-----6--------3-------------------4-----3-------2---4---5----6----|
D|7-7--------3-------6---6---------2-----------------2---4---5-----7-|
A|6----------------4-------------------------------2-----------------|
E|---------4---------------2-----3-------2-------------4---6----7----|


e|----------10--8--------------------|
B|-8-----8--------11--10---------9---|
G|-8------8--------------------------|
D|-8----8----------------------9-----|
A|-8-------------------------7-------|
E|-------------------------0---------|


e|-------4-----7---5----4-----2----4--------4-|
B|---5-7-------5----------------4------4-5----|
G|-4-----------6----6-----2-----2-----6---6---|
D|-------------7-7-------------------6--------|
A|-------------0--------2-----3----4----------|
E|--------------------------------------------|


e|-4-----2------------------------------2--------------------|
B|-2---------2----7----5-------5---4--------4----2-----2---0-|
G|-2---2------2-----------4----4-4---4--------3------2-----2-|
D|-2-----------------6-----6---2----------4---------2------1-|
A|-----------------------------------------------2---------2-|
E|----------------4------------3--------2--------------------|

A
Ya ves...
e|-----------0----------------------|
B|--------0-----0-------0---------0-|
G|--------1------1-------0----------|
D|--------4-----------2---------4---|
A|------2------------0---------2----|
E|--0-------------------------------|


e|----------------------------------------0----------|
B|---------5----4--------7---5---4------------4---2--|
G|-----6-----6----4--6----6----5---5------4---4---4--|
D|---6---6-------------4----------------2---2---2---2|
A|-4----------------------------------0--------------|
E|--------------7----5-------4-----------------------|


e|---------------------------------------------0-------0---|
B|------0--------4-----------5-----4---------------------0-|
G|--------0--------2-----6---------------------------------|
D|----4--------4-------6---6---6------4------4-------------|
A|--2--------3-------4---------------------0---------2-----|
E|---------------------------------7-----------------------|


e|-------------0---------0--------------|
B|---------0------------0---4-----------|
G|-------1---1---1----------4-----6-----|
D|-----4--------------4-----4--4-----4--|
A|---2---------------2------0-----------|
E|-0------------------------------------|


Ya ves...
e|-----------0----------------------|
B|--------0-----0-------0---------0-|
G|--------1------1-------0----------|
D|--------4-----------2---------4---|
A|------2------------0---------2----|
E|--0-------------------------------|


e|----------------------------------------0----------|
B|---------5----4--------7---5---4------------4---2--|
G|-----6-----6----4--6----6----5---5------4---4---4--|
D|---6---6-------------4----------------2---2---2---2|
A|-4----------------------------------0--------------|
E|--------------7----5-------4-----------------------|


e|------------0?-7-5---4-------------------------0--------0---|
B|----------4----4-------------5-------4----------------------|
G|-----4----2--------------6------6------------2--------4-----|
D|---4---4--4----4-------6---6------------4----2--------4-----|
A|-2--------3----------4---------------------0--------2-------|
E|-------------------------------------7----------------------|


e|-------------0------0--|
B|---------0----------0--|
G|-------1---1---1----2--|
D|-----4--------------4--|
A|---2----------------2--|
E|-0---------------------|


Y mientras tanto...
e|------4--------2--------2-----------------------0-------------0-|
B|--5--------4-----0--3---------3----3------------0--0---------0--|
G|--------4-----------------2---2----1-------2---------0------4---|
D|----6--------4--------4-------2--2----2-------2--------2---4----|
A|--4--------3--------2--------------------0----------------2-----|
E|------------------------------0---------------------------------|


e|------4--------2--------2----------------------0--------------0-|
B|--5--------4-----0--3--------3----3------------0--0----------0--|
G|--------4-----------------2--2----1-------2---------0-------4---|
D|----6--------4--------4------2--2----2-------2--------2----4----|
A|--4--------3--------2-------------------0----------------2------|
E|-----------------------------0----------------------------------|


  Así yo canto...
e|------------------------------------------------------|
B|-----7-----5--------4------2-----------------0-----0--|
G|--------------4-----4---------2----4-------4-----2----|
D|-4/6-----6-----6----2----2-------4-------4------------|
A|--------------------0------------------2---------3----|
E|-----0------------------------------------------------|


e|-----------------------0-------0------0--------------------|
B|---------5---4-------------0----------------0-----------0--|
G|-----6-------------6---------------2-----2----------4----4-|
D|---6---6---6---------4-------2--------------------4--------|
A|-4---------------------------------------------2-----------|
E|-------------7-4---5-------4-------2-----------------------|


                       Así yo canto para recordar...
e|---------------------0-----------------------------|
B|----------0------------0-----4----2-------------0--|
G|--------1---1---2-4-----4----4------2----4---------|
D|------4----------------------2--2------4------4----|
A|----2------------------------0--------------2------|
E|--0-----------0-2-4--------------------------------|


e|------5-4---------------------------0--------0-----0------0-|
B|-------------7----5-----4---5-------------------------------|
G|--------------------4-----------6--------4-------2----2---2-|
D|---4------------6---------4-------4--------2--------------4-|
A|-3-----------4--------------------------------------------2-|
E|------------------------7-------5--------4-------2----------|


                             Ya ves...
e|--------------0----0---------------5-4-------|
B|----------0------2---------------5-----5-----|
G|--------1---1----2----4--2-----4---------4---|
D|------4----------2----2--2-----------------6-|
A|----2------------0---------------------------|
E|--0-------------------4--2--0----------------|


e|-----------------|
B|-----0---------0-|
G|-------0---------|
D|---2---------4---|
A|-0---------2-----|
E|-----------------|


e|----------------------------------------0----------|
B|---------5----4--------7---5---4------------4---2--|
G|-----6-----6----4--6----6----5---5------4---4---4--|
D|---6---6-------------4----------------2---2---2---2|
A|-4----------------------------------0--------------|
E|--------------7----5-------4-----------------------|


e|---------------------------------------------0------0---|
B|------0--------4-----------5-----4--------------------0-|
G|--------0--------2-----6--------------------------------|
D|----4--------4-------6---6---6------4------4------------|
A|--2--------3-------4---------------------0--------2-----|
E|---------------------------------7----------------------|


e|-------------0---------0--------------|
B|---------0------------0---4-----------|
G|-------1---1---1----------4-----6-----|
D|-----4--------------4-----4--4-----4--|
A|---2---------------2------0-----------|
E|-0------------------------------------|


ya ves...
e|---------0--------------|
B|-------0---0--------0---|
G|-------1-----1--------0-|
D|-------4----------2-----|
A|-----2----------0-------|
E|--0---------------------|


e|----------------------------------------------------------4----|
B|----------------------------------------------4-------------7--|
G|--6-----5------4------3-------2----1------6------5---5---------|
D|----4-----4------2-------2------1----0------4----------4-------|
A|---------------3--------------2------------------------6-------|
E|--5-----4-------------2------------0------5----------4---------|


e|-----0----------|
B|---------4---2--|
G|-----4---4---2--|
D|---2---2---2----|
A|-0--------------|
E|----------------|


e|------------0?-7-5---4-------------------------0--------0--|
B|----------4----4-------------5-------4---------------------|
G|-----4----2--------------6------6------------2--------4----|
D|---4---4--4----4-------6---6------------4----2--------4----|
A|-2--------3----------4---------------------0--------2------|
E|-------------------------------------7---------------------|

e|-------------0------0----|
B|---------0---------------|
G|-------1---1---1----2----|
D|-----4--------------4----|
A|---2----------------2----|
E|-0-----------------------|

y mientras tanto...
e|------4---------2--------2--------------------0--------------0-----|
B|--5---------4-----0--3--------3----3----------0--0----------0------|
G|--------4------------------2--2----1-----2---------0-------4-------|
D|----6---------4--------4------2--2---2------2--------2----4--------|
A|--4---------3--------2------------------0---------------2------2-3-|
E|------------------------------0------------------------------------|


e|------4--------2------2-----------------------0---------------0-|
B|--5--------4------3---------3----3------------0--0-----------0--|
G|--------4---------------2---2----1-------2---------0--------4---|
D|----6--------4------4-------2--2----2-------2--------2-----4----|
A|--4--------3------2--------------------0-----------------2------|
E|----------------------------0-----------------------------------|


  Así yo canto...
e|------------------------------------------------------|
B|-----7-----5--------4------2-----------------0-----0--|
G|--------------4-----4---------2----4-------4-----2----|
D|-4/6-----6-----6----2----2-------4-------4------------|
A|--------------------0------------------2---------3----|
E|-----0------------------------------------------------|


e|-----------------------0-------0------0---------------------|
B|---------5---4-------------0----------------0-----------0---|
G|-----6-------------6---------------2-----2-----------4---4--|
D|---6---6---6---------4-------2---------------------4--------|
A|-4----------------------------------------------2-----------|
E|-------------7-4---5-------4-------2------------------------|

                       Así yo canto para recordar...
e|---------------------0-----------------------------|
B|----------0------------0-----4----2-------------0--|
G|--------1---1---2-4-----4----4------2----4---------|
D|------4----------------------2--2------4------4----|
A|----2------------------------0--------------2------|
E|--0-----------0-2-4--------------------------------|


e|-------5-4---------------------------0--------0-----0-------0--|
B|--------------7----5-----4---5---------------------------------|
G|---------------------4-----------6--------4-------2----2----2--|
D|---4-------------6---------4-------4--------2---------------4--|
A|-3------------4---------------------------------------------2--|
E|-------------------------7-------5--------4-------2------------|

Final:

e|-----------------------------------------------------------------0-|
B|-----------5------------5-------------5-----------0---------0----0-|
G|---------2---2---2-----4--4---4-----4--4---2--2-----2--2------2--1-|
D|-------2-------2-----2------2-----2------2------2---------1------4-|
A|-----0-------------------------------------------------2---------2-|
E|-2-4---------------4------------3-------------2------------------0-|


Este es mi primer aporte. He procurado ser claro en la notación.
Para esto he tratado de separar un poco las posiciones de la mano izquierda
una de otra con el fin de facilitar la lectura. Las posiciones
verticales son ejecutadas a modo de arpegios.

Guillermo Moreno Pinto
Concertista en Guitarra

            
            
Suggest correction
Creating personal tab
Creating personal tab
You can edit any tab online and save it as your Personal.

You can edit, replace or remove any tab part or add personal notes – all changes will be seen only by you.

Personal tabs can be accessed anytime from any device, even offline.
Learn more »
Give kudos to tab author, rate the tab!
1 2 3 4 5
comments
print report bad tab
guest
Wanna post a correction for this tab? Suggest correction