Oops, an error
Loading. Please wait.

Stingray Affliction bass

version 1
version 1

Whole song

Interactive

by Issues
1,348 views 6 this week
no commentswrite comment
1 2 3 4 5
x 3
add to favorites
×
Save as Personal and add changes to this tab that will be seen only by you. Learn more ›
×
You can save this tab as Personal to edit and correct it or add notes. All changes will be seen only by you. Learn more »
launch autoscroll
font size
0
reset
guitar tuner
edit
Autoscroll
slow
fast
+/-
esc
set tempo
stop
-------------------------------------------------------------------------------
                             STINGRAY AFFLICTION - Issues
-------------------------------------------------------------------------------
Tabbed by: cesare_moon
E-mail: 

Artist: Issues
Album: Issues
Year: 2014

Tuning: A#, F, A#, D#

It's hard in parts to distinguish bass from guitar and electronics. I tried my best with this 
but hit me up with any corrections if you've got them :)

Intro Riff - 00.00 - 00.21

D#|--------------------------------------------------------|
A#|--------------------------------------------------------|
F |-----------6---------------12--------4------------------|
A#|-1--2----0---0---6--1--0-----11--0------0--2-1--2-------|

D#|--------------------------------------------------------|
A#|--------------------------------------------------------|
F |-----------6---------------12--------4------------------|
A#|-1--2----0---0---6--1--0-----11--0------0--1-0--1-------|

D#|--------------------------------------------------------|
A#|--------------------------------------------------------|
F |-----------6---------------12--------4------------------|
A#|-1--2----0---0---6--1--0-----11--0------0--2-1--2-------|

D#|--------------------------------------------------------|
A#|--------------------------------------------------------|
F |-----------6---------------12--------4------------------|
A#|-1--2----0---0---6--1--0-----11--0------0--0----1-------|

Verse - 00.21 - 00.51 

D#|--------------------------------------------------------|
A#|--------------------------------------------------------|
F |--------------------------------------------------------|
A#|-0-0-0--0-0---0--0-0-0--0-0--3-2-2-4---3-2-6-1----------| x4

D#|------------------------------------------------------------------------------------------------------|
A#|-----------------------------------------------------7--7-8-------------------------------------------|
F |------------------------------------------------------------8--8-8-8-8-8-8-8-8------------------------|
A#|-0--0-0--0--0-0-0--0-0-0--0-0-0-3-3-3-5--5-5-5-5-5--------------------------------3/5~------5~--------|

Chorus - 00.51 - 01.11 

D#|---------------------------------------------------------------------------|
A#|---------------------------------------------------------------------------|
F |---------------------------------------------------------------------------|
A#|-0-0-0-0-0-0-0-0-7-7-7-7-7-7-7-7-8-8-8-8-8-8-8-8-8-8-8-8-8-8-8-8-----------| x2

D#|---------------------------------------------------------------------------|
A#|---------------------------------------------------------------------------|
F |---------------------------------------------------------------------------|
A#|-0-0-----------0-7-------7-----7-8-----8---------8-10---10-----------------|

D#|-------------------------------------------|
A#|-------------------------------------------|
F |-------------------------------------------|
A#|-0-0-----------0-7--7-------7--7-8-0x------|

Intro Riff - 01.11 - 01.21

D#|--------------------------------------------------------|
A#|--------------------------------------------------------|
F |-----------6---------------12--------4------------------|
A#|-1--2----0---0---6--1--0-----11--0------0--2-1--2-------|

D#|--------------------------------------------------------|
A#|--------------------------------------------------------|
F |-----------6---------------12--------4------------------|
A#|-1--2----0---0---6--1--0-----11--0------0--1-0--1-------|

D#|--------------------------------------------------------|
A#|--------------------------------------------------------|
F |-----------6---------------12--------4------------------|
A#|-1--2----0---0---6--1--0-----11--0------0--2-1--2-------|

D#|--------------------------------------------------------|
A#|--------------------------------------------------------|
F |-----------6---------------12--------4------------------|
A#|-1--2----0---0---6--1--0-----11--0------0--0----1-------|

Verse - 01.21 - 02.00

D#|---------------------------------------------------------------------------|
A#|---------------------------------------------------------------------------|
F |---------------------------------------------------------------------------|
A#|-0-0-0-0-0-0-0-0-0-0--5-5--5-5-5-5-5-5-5-5--7-7--7-7-7-7-8-8-8-8-----------| x4

(Not 100% sure on this slap bass part but I tried my best...)

D#|-------------------------------------------|
A#|----------3--------------------------------|
F |-----------------------------8-------------|
A#|-11/0---3---5---3----------5---5---5---3---| x2

D#|---------------------------------------------------------------------------|
A#|---------------------------------------------------------------------------|
F |---------------------------------------------------------------------------|
A#|-0---0--0--0----0--0----0--0-0-0----0--0-0---0-----0-0-0---0--0------------| x2

Chorus - 02.00 - 02.21

D#|---------------------------------------------------------------------------|
A#|---------------------------------------------------------------------------|
F |---------------------------------------------------------------------------|
A#|-0-0-0-0-0-0-0-0-7-7-7-7-7-7-7-7-8-8-8-8-8-8-8-8-8-8-8-8-8-8-8-8-----------| x2

D#|---------------------------------------------------------------------------|
A#|---------------------------------------------------------------------------|
F |---------------------------------------------------------------------------|
A#|-0-0-----------0-7-------7-----7-8-----8---------8-10---10-----------------|

D#|-------------------------------------------|
A#|-------------------------------------------|
F |-------------------------------------------|
A#|-0-0-----------0-7--7-------7--7-8-0x------|

Bridge - 02.31 - 03.11 

D#|---------------------------------------------------------------------------|
A#|---------------------------------------------------------------------------|
F |------------------------------------------5~------------------3~-----------|
A#|-8~--------------------5~--------------------------------------------------| x4

Outro - 03.11 - End.

(Tried my best with this)

D#|---------------------------------------------------------------------------|
A#|---------------------------------------------------------------------------|
F |---------------10-12-------------------------------------------------------|
A#|-3--5---3-5-0--------0---5-3--0--12-0-13---0-12--0--0--3-5--0--10--13-12---|

D#|---------------------------------------------------------------------------|
A#|---------------------------------------------------------------------------|
F |---------------10-12-------------------------------------------------------|
A#|-3--5---3-5-0--------0---5-3--0--12-0-13---0-12--0--0--3-5--0--10--13-12x--|

Thank you! :)

| /  slide up
| \  slide down
| h  hammer-on
| p  pull-off
| ~  vibrato
| +  harmonic
| x  Mute note
===============================================================================

            
            
Suggest correction
Creating personal tab
Creating personal tab
You can edit any tab online and save it as your Personal.

You can edit, replace or remove any tab part or add personal notes – all changes will be seen only by you.

Personal tabs can be accessed anytime from any device, even offline.
Learn more »
Give kudos to tab author, rate the tab!
1 2 3 4 5
comments
print report bad tab
guest
You may want to rate the tab now too:
select rating
Wanna post a correction for this tab? Suggest correction