Oops, an error
Loading. Please wait.

The Worst Of Them bass

version 1
version 1

Whole song

Interactive

by Issues
3,642 views 1 this week
no commentswrite comment
1 2 3 4 5
x 3
add to favorites
×
Save as Personal and add changes to this tab that will be seen only by you. Learn more ›
×
You can save this tab as Personal to edit and correct it or add notes. All changes will be seen only by you. Learn more »
launch autoscroll
font size
0
reset
guitar tuner
edit
Autoscroll
slow
fast
+/-
esc
set tempo
stop
The Worst of Them
Issues
Black Diamonds - EP
Bass

Tabbed by: Seth LaVallee
Email: stlavallee@hotmail.com

Tuning: Drop B (B-F#-B-E)

Intro/Chorus

E |-----------------------------------------------------------------------|
B |-----------------------------------------------------------------------|
F#|-----------------------------------------------------------------------|
B |--8-8-8-8-8-8-8-8-8-8-8-8-10-10-10-10-0-0-0-0-0-0-0-0-0-0-0-0-3-3-3-3--|

E |----------------------------------------------|--------------------------|
B |----------------------------------------------|--------------------------|
F#|----------------------------------------------|--------------------------|
B |--5-5-5-5-5-5-5-5-5-5-5-5-7-7-7-7-0-0-0-0-3-3-|-7~-----------------------|

E |-------------------------------------------------------------------------|
B |-------------------------------------------------------------------------|
F#|-1-1-1-1-1-1-1-1-1-1-1-1-1/3-3-3-3-5-5-5-5-5-5-5-5-5-5-5-5-5-5-5-5-------|
B |-------------------------------------------------------------------------|

E |-----------------------------------------------------------|
B |-----------------------------------------------------------|
F#|-----------------------------------------------------------|
B |--0-0-0-0-0~--0-0-0-0~--8/10-10\5-5-5-5~--5~-5-5-7~-5~-3~--|

Verse 1

E |-------------------------------------------------------------------------|
B |-------------------------------------------------------------------------|
F#|-------------------------------------------------------------------------|
B |--0-0-0---0------0-0-0-000-0---0-----0-0-0---0------0-0-0-000-0-000-0----|
     . . .   .      . . . ... .   .     . . .   .      . . . ... . ... .
E |-------------------------------------------------------------------------|
B |-------------------------------------------------------------------------|
F#|-------------------------------------------------------------------------|
B |------0-0~--0-------0-------5~-----0----------0-0---------1-1-1-1--------|
         . .   .       .              .          . . 
E |----------------------------------|
B |----------------------------------|
F#|----------------------------------|
B |--0-0-0---0------0-0-0-000-0---0--|

E |-------------------------------------------|
B |-------------------------------------------|
F#|----------------7-7-7-7-7-7-7-7-7-7-7-7-7--|
B |------0-0~--0------------------------------|
         . .   .
E |--------------------------|
B |--------------------------|
F#|--------------------------|
B |--8~-----------0-0-0---0--|

Chorus

E |-----------------------------------------------------------------------|
B |-----------------------------------------------------------------------|
F#|-----------------------------------------------------------------------|
B |--8-8-8-8-8-8-8-8-8-8-8-8-10-10-10-10-0-0-0-0-0-0-0-0-0-0-0-0-3-3-3-3--|

E |----------------------------------------------|--------------------------|
B |----------------------------------------------|--------------------------|
F#|----------------------------------------------|--------------------------|
B |--5-5-5-5-5-5-5-5-5-5-5-5-7-7-7-7-0-0-0-0-3-3-|-7~-----------------------|

E |-------------------------------------------------------------------------|
B |-------------------------------------------------------------------------|
F#|-1-1-1-1-1-1-1-1-1-1-1-1-1/3-3-3-3-5-5-5-5-5-5-5-5-5-5-5-5-5-5-5-5-------|
B |-------------------------------------------------------------------------|

E |-----------------------------------------------------------|
B |-----------------------------------------------------------|
F#|-----------------------------------------------------------|
B |--0-0-0-0-0~--0-0-0-0~--8/10-10\5-5-5-5~--5~-5-5-7~-5~-3~--|

Verse 2

E |-------------------------------------------------------------------------|
B |-------------------------------------------------------------------------|
F#|-------------------------------------------------------------------------|
B |--0-0-0---0----0-0-0-000-0---0----0-0-0---0-----0-0-0-000-0-000-0--0-12\-|
     . . .   .    . . . ... .   .    . . .   .     . . . ... . ... .  .
E |-------------------------------------------------------------------------|
B |-------------------------------------------------------------------------|
F#|-------------------------------------------------------------------------|
B |------0-0~--0-------0-------5~-----0----------0-0---------1-1-1-1--------|
         . .   .       .              .          . .
E |----------------------------------|
B |----------------------------------|
F#|----------------------------------|
B |--0-0-0---0------0-0-0-000-0---0--|
     . . .   .      . . . ... .   .
E |-------------------------------------------|
B |-------------------------------------------|
F#|----------------7-7-7-7-7-7-7-7-7-7-7-7-7--|
B |------0-0~--0------------------------------|
         . .   .
E |--------------------------|
B |--------------------------|
F#|--------------------------|
B |--8~-----------0-0-0---0--|
                  . . .   .
Chorus

E |-----------------------------------------------------------------------|
B |-----------------------------------------------------------------------|
F#|-----------------------------------------------------------------------|
B |--8-8-8-8-8-8-8-8-8-8-8-8-10-10-10-10-0-0-0-0-0-0-0-0-0-0-0-0-3-3-3-3--|

E |----------------------------------------------|--------------------------|
B |----------------------------------------------|--------------------------|
F#|----------------------------------------------|--------------------------|
B |--5-5-5-5-5-5-5-5-5-5-5-5-7-7-7-7-0-0-0-0-3-3-|-7~-----------------------|

E |-------------------------------------------------------------------------|
B |-------------------------------------------------------------------------|
F#|-1-1-1-1-1-1-1-1-1-1-1-1-1/3-3-3-3-5-5-5-5-5-5-5-5-5-5-5-5-5-5-5-5-------|
B |-------------------------------------------------------------------------|

E |-----------------------------------------------------------|
B |-----------------------------------------------------------|
F#|-----------------------------------------------------------|
B |--0-0-0-0-0~--0-0-0-0~--8/10-10\5-5-5-5~--5~-5-5-7~-5~-3~--|

Breakdown

E |-------------------------------------------------------------------------|
B |-------------------------------------------------------------------------|
F#|--------------------------------------------------------------7~---------|
B |--000-0-000-0--0-0--0---0-0-------000-0-0-0-0~----7-0-7h8-0-8------------|
     ... . ... .  . .  .   . .       ... . . . .
E |-------------------------------------------------------------|
B |-------------------------------------------------------------|
F#|-------------------------------------------------------------|
B |--000-0-000-0--0-0--0---0-0-------000-0-0-0-0~----7-0-7h8-0--|
     ... . ... .  . .  .   . .       ... . . . .
Pre-Bridge

E |-----------------------------------------------------------------|
B |-----------------------------------------------------------------|
F#|-----------------------------------------------------------------|
B |--8-8-8-8--8--8-8--8--10-10-10-10-0-0-0-0-0--0-0-0--3-3--3-3--3--|

E |-----------------------------------------------------------------|
B |-----------------------------------------------------------------|
F#|-----------------------------------------------------------------|
B |--8-8-8-8--8--8-8--8--10-10-10-10-0-0-0-0-0--0-0-0--3-3--3-3--3--|

E |--------------------------------------------------|
B |--------------------------------------------------|
F#|--------------------------------------------------|
B |--888-8-8--8-8---------0000----0-0-0---0---0--7~--|

E |-------------------------------------------------------------------------|
B |-------------------------------------------------------------------------|
F#|-------------------------------------------------------------------------|
B |-8-8-8-8-8-8-8-8-8-10-10-10-10-12-12-12-12-12-12-12-12-12-12-12-12-12-12-|

E |-------------------------------------------------------------------------|
B |-------------------------------------------------------------------------|
F#|-------------------------------------------------------------------------|
B |--888-8-8--8-8-------0000----0-0-0---0---0--0-7~-5~-3~-------------------|

Chorus

E |-----------------------------------------------------------------------|
B |-----------------------------------------------------------------------|
F#|-----------------------------------------------------------------------|
B |--8-8-8-8-8-8-8-8-8-8-8-8-10-10-10-10-0-0-0-0-0-0-0-0-0-0-0-0-3-3-3-3--|

E |----------------------------------------------|--------------------------|
B |----------------------------------------------|--------------------------|
F#|----------------------------------------------|--------------------------|
B |--5-5-5-5-5-5-5-5-5-5-5-5-7-7-7-7-0-0-0-0-3-3-|-7~-----------------------|
                                     
E |-------------------------------------------------------------------------|
B |-------------------------------------------------------------------------|
F#|-1-1-1-1-1-1-1-1-1-1-1-1-1/3-3-3-3-5-5-5-5-5-5-5-5-5-5-5-5-5-5-5-5-------|
B |-------------------------------------------------------------------------|

E |-----------------------------------------------------------|
B |-----------------------------------------------------------|
F#|-----------------------------------------------------------|
B |--0-0-0-0-0~--0-0-0-0~--8/10-10\5-5-5-5~--5~-5-5-7~-5~-3~--|
     . . . . .   . . . .
[End]

***************************************
/ Slide Up
~ Held Note
\ Slide Down
. Palm Mute
h Hammer On
p Pull Off
***************************************

            
            
Suggest correction
Creating personal tab
Creating personal tab
You can edit any tab online and save it as your Personal.

You can edit, replace or remove any tab part or add personal notes – all changes will be seen only by you.

Personal tabs can be accessed anytime from any device, even offline.
Learn more »
Give kudos to tab author, rate the tab!
1 2 3 4 5
comments
print report bad tab
guest
You may want to rate the tab now too:
select rating
Wanna post a correction for this tab? Suggest correction