Oops, an error
Loading. Please wait.

The Worst Of Them tab

version 2
version 2

Whole song

Interactive

by Issues
31,524 views 24 this week
10 commentsread comments
1 2 3 4 5
x 21
add to favorites
×
Save as Personal and add changes to this tab that will be seen only by you. Learn more ›
×
You can save this tab as Personal to edit and correct it or add notes. All changes will be seen only by you. Learn more »
launch autoscroll
font size
0
reset
how to read this tab
guitar tuner
edit
Autoscroll
slow
fast
+/-
esc
set tempo
stop
This is the tab for The Worst acoustic version of Them by Issues. 

Tuning: (Drop D) DADGBe
Capo at 4th fret

Chords used: (I have no idea they're names, I tried to find them but found nothing so I 
simply named them 1 2 3 4 for your convenience. Actually the main reason it took my this 
long to post up the tab lol.)

     1:     2:     3:     4:
D |--0------0------0------0------------------------------------|
A |--1------0------0------0------------------------------------|
F#|--0------5------2------0------------------------------------|
D |--3------3------3------3------------------------------------|
A |--3------0------0------3------------------------------------|
D |--0------5------3------2------------------------------------|



D |-------------0----------------------------------------------|
A |-------1-------1---1----------------------------------------|
F#|-----0---0-------0---0---0-------5-------5-----5------------|
D |---3-------3-----------3-------3-----3-----3-----3---3------|
A |---------------------------------------0-----0-----0--------|
D |-0-------------------------3/5------------------------------|


D |------------------------------------------------------------|
A |------------------------------------------------------------|
F#|--------2-------2-----2---------------0------0-----0--------|
D |------3-----3-----3------3---3------3----3-----3------3---3-|
A |----0---------0-----0------0------3--------3-----3------3---|
D |--3-----------------------------2---------------------------|


[Verse]
1
Funny how everytime you push me away

2
You turn around and you beg me to stay

3
Cut down by the things you say

4
It's the beating of, a broken drum 

            
            
Suggest correction
Creating personal tab
Creating personal tab
You can edit any tab online and save it as your Personal.

You can edit, replace or remove any tab part or add personal notes – all changes will be seen only by you.

Personal tabs can be accessed anytime from any device, even offline.
Learn more »
comments
print report bad tab
10 comments total. Showing first comments.
0 reply
visualidiot 115 Jun 26, 2013 06:05 PM

Probably wrong here, but I think the "chords" might be:

1. F#M11
2. Aadd9
3. Amaj7b5
4. Amaj9#11 (no 3rd)

Probably easier to leave them as the numbers.

0 reply
iamwes 72 Jun 27, 2013 04:38 PM

haha yea i found the same stuff but i figured it'd cause more confusion than anything. but thanks for the comment and rate!

0 reply
cjfrance 10 Jul 19, 2013 07:14 PM

Hey man great tab. The picking part is 100% spot on, but i'm not sure if the chords are correct because they sound a little off specifically on the B and E strings. I'm not sure if there is anything you suggest but once again nice tab man.

guest
You may want to rate the tab now too:
select rating
Wanna post a correction for this tab? Suggest correction