Oops, an error
Loading. Please wait.

Blood Stained Bedsheet Burden tab

version 2
version 2

Whole song

375 views 1 this week
no commentswrite comment
1 2 3 4 5
2 more votes to show rating
add to favorites
×
Save as Personal and add changes to this tab that will be seen only by you. Learn more ›
×
You can save this tab as Personal to edit and correct it or add notes. All changes will be seen only by you. Learn more »
launch autoscroll
font size
0
reset
how to read this tab
guitar tuner
edit
Autoscroll
slow
fast
+/-
esc
set tempo
stop
Author
TUNING: DROP C

KEY:
. Palm Mute
/ Slide
h Hammer On
p Pull Off
* Pinch Harmonic
n*Natural Harmonic
~ Let Ring

|--------------------------------|
|--------------------------------|
|-n*7----------------------------|
|--------------------------------|
|--------------------------------|
|--------------------------------|

|-----------------------------------------------------------------------|
|-5----------------5----------------5----------------5------------------|
|-8----------------8----------------8----------------8------------------|
|-----------------------------------------------------------------------|
|----------000-000----------000-000----------000-000----------0----0----|
|----------000-000----------000-000----------000-000----------0----0----|
           .......          .......          .......          ......
X2
|-------------------------------------------------------------|
|-5----------5----------5-------5----------5----------5-------|
|-8----------8----------8-------8----------8----------8-------|
|-------------------------------------------------------------|
|----000-000----000-000---0-0-0----000-000----000-000---0-0-0-|
|----000-000----000-000---0-0-0----000-000----000-000---0-0-0-|
     .......    .......   .....    .......    .......   .....
X2
|-------------------------------------------------------------|
|-17---------17---------17------16---------16---------16------|
|-20---------20---------20------19---------19---------19------|
|-------------------------------------------------------------|
|----000-000----000-000---0-0-0----000-000----000-000---0-0-0-|
|----000-000----000-000---0-0-0----000-000----000-000---0-0-0-|
     .......    .......   .....    .......    .......   .....

|--------------------------------|
|--------------------------------|
|--------------------------------|
|-0------------------------------|
|-0------------------------------|
|-0------------------------*3----|
|                                |
|--------------------------------|
|--------------------------------|
|-5------------------------------|
|-8------------------------------|
|--------------------------------|
|--------------------------------|

X4
|---------------------------------------------------------------|
|---------------------------------------------------------------|
|---------------------------------------------------------------|
|---------------------------------------------------------------|
|-1-0-0-3-1-0-1-0-0-3-1-0-4-3-0-1-0-0-3-1-0-1-0-000-000-000-000-|
|-1-0-0-3-1-0-1-0-0-3-1-0-4-3-0-1-0-0-3-1-0-1-0-000-000-000-000-|
      .     .     .     .     .     .     .     ...............

|--------------------------------|
|----11--11-----11--11-----------|
|----14--14-----14--14-----------|
|--------------------------------|
|-0----------0----------0--------|
|-0----------0----------0--------|
  .          .          .

X2
|-----------------------------------------------------------|
|----------------------9----9-----------------------9----9--|
|----------------------12---12----------------------12---12-|
|-----------------------------------------------------------|
|-000-000----000-000-0----0----000-000----000-000-0----0----|
|-000-000----000-000-0----0----000-000----000-000-0----0----|
  ....................    .    ....................    .

|------------------------------------------------------------|
|------------------------------------------------------------|
|------------------------------------------------------------|
|------------------------------------------------------------|
|-111-111----111-111-111-111----111111----111-111-111-111----|
|-111-111----111-111-111-111----111111----111-111-111-111----|
  .......    ...............    ......    ...............

|-----------------------------------------------------------|
|-----------------------------------------------------------|
|-----------------------------------------------------------|
|-----------------------------------------------------------|
|-111111----111-111-111-111----111111----111-111-111-111----|
|-111111----111-111-111-111----111111----111-111-111-111----|
  ......    ...............    ......    ...............

|----------------|
|----------------|
|----------------|
|-0--------------|
|-0--------------|
|-0--------------|

|---------------------------------------------------------------|
|---------------------------------------------------------------|
|---------------------------------------------------------------|
|---------------------------------------------------------------|
|-1-0-0-3-1-0-1-0-0-3-1-0-4-3-0-1-0-0-3-1-0-1-0-000-000-000-000-|
|-1-0-0-3-1-0-1-0-0-3-1-0-4-3-0-1-0-0-3-1-0-1-0-000-000-000-000-|
      .     .     .     .     .     .     .     ...............

|---------------------------------------------------------------|
|---------------------------------------------------------------|
|---------------------------------------------------------------|
|---------------------------------------------------------------|
|-1-0-0-3-1-0-1-0-0-3-1-0-4-3-0-1-0-0-3-1-0-1-0-000-000-000-000-|
|-1-0-0-3-1-0-1-0-0-3-1-0-4-3-0-1-0-0-3-1-0-1-0-000-000-000-000-|
      .     .     .     .     .     .     .     ...............

|-----------------|
|-----------------|
|-----------------|
|-----------------|
|-000-000-000-000-|
|-000-000-000-000-|
  ...............

|---------------------------------------------------------------|
|---------------------------------------------------------------|
|---------------------------------------------------------------|
|---------------------------------------------------------------|
|-1-0-0-3-1-0-1-0-0-3-1-0-4-3-0-1-0-0-3-1-0-1-0-000-000-000-000-|
|-1-0-0-3-1-0-1-0-0-3-1-0-4-3-0-1-0-0-3-1-0-1-0-000-000-000-000-|
      .     .     .     .     .     .     .     ...............

|---------------------------------------------------------------|
|---------------------------------------------------------------|
|---------------------------------------------------------------|
|---------------------------------------------------------------|
|-1-0-0-3-1-0-1-0-0-3-1-0-4-3-0-1-0-0-3-1-0-1-0-000-000-000-000-|
|-1-0-0-3-1-0-1-0-0-3-1-0-4-3-0-1-0-0-3-1-0-1-0-000-000-000-000-|
      .     .     .     .     .     .     .     ...............

|-----------------|
|-----------------|
|-----------------|
|-----------------|
|-000-000-000-000-|
|-000-000-000-000-|
  ...............

|-----------------------------------------|
|-----------------------------------------|
|-----------------------------------------|
|-----------------------------------------|
|-0----0----0----0----0----0----0----0----|
|-0----0----0----0----0----0----0----0----|
  ....................................

|-------------------------------------------------------|
|-------------------------------------------------------|
|-------------------------------------------------------|
|-------------------------------------------------------|
|-0-0----0-0--0-0--000--000--0-0----0-0--0-0--000--000--|
|-0-0----0-0--0-0--000--000--0-0----0-0--0-0--000--000--|
  ....................................................

|-------------------------------------------------------|
|-------------------------------------------------------|
|-------------------------------------------------------|
|-0-0----0-0--0-0--000--000--0-0----444--333--111--333--|
|-0-0----0-0--0-0--000--000--0-0----555--444--222--444--|
  ....................................................

|-------------------------------------------------------|
|-------------------------------------------------------|
|-------------------------------------------------------|
|-------------------------------------------------------|
|-0-0----0-0--0-0--000--000--0-0----0-0--0-0--000--000--|
|-0-0----0-0--0-0--000--000--0-0----0-0--0-0--000--000--|
  ....................................................

|-------------------------------------------------------|
|-------------------------------------------------------|
|-------------------------------------------------------|
|-0-0----0-0--0-0--000--000--0-0----444--333--111--333--|
|-0-0----0-0--0-0--000--000--0-0----555--444--222--444--|
  ....................................................

|----------------|
|----------------|
|----------------|
|-0--------------|
|-0--------------|
|-0--------------|

X4
|-------------------------------------------------|
|-------------------------------------------------|
|-12-12-1212-11-11-111111-8--8--8-8--7--7--7-7-7--|
|-X--X--X-X--X--X--X-X-X--X--X--X-X--X--X--X-X-X--|
|-10-10-1010-9--9--9-9-9--6--6--6-6--5--5--5-5-5--|
|-------------------------------------------------|
|                                                 |
|-------------------------------------------------|
|-------------------------------------------------|
|-------------------------------------------------|
|-5--5--5-5--5--5--5-5-5--1--1--1-1--1--1--1-1-1--|
|-5--5--5-5--5--5--5-5-5--1--1--1-1--1--1--1-1-1--|
|-5--5--5-5--5--5--5-5-5--1--1--1-1--1--1--1-1-1--|

|---------------------------------------------------------------|
|---------------------------------------------------------------|
|-121212121212121211111111111111118-8-8-8-8-8-8-8---------------|
|-X-X-X-X-X-X-X-X-X-X-X-X-X-X-X-X-X-X-X-X-X-X-X-X-----1------1--|
|-10101010101010109-9-9-9-9-9-9-9-6-6-6-6-6-6-6-6-11111--11111--|
|-------------------------------------------------11111--11111--|
|                                                 ....   ....   |
|---------------------------------------------------------------|
|---------------------------------------------------------------|
|---------------------------------------------------------------|
|-5-5-5-5-5-5-5-5-5-5-5-5-5-5-5-5-1-1-1-1-1-1-1-1-----1------1--|
|-5-5-5-5-5-5-5-5-5-5-5-5-5-5-5-5-1-1-1-1-1-1-1-1-11111--11111--|
|-5-5-5-5-5-5-5-5-5-5-5-5-5-5-5-5-1-1-1-1-1-1-1-1-11111--11111--|
                                                  ....   ....

|---------------------------------------------------------------|
|---------------------------------------------------------------|
|-121212121212121211111111111111118-8-8-8-8-8-8-8---------------|
|-X-X-X-X-X-X-X-X-X-X-X-X-X-X-X-X-X-X-X-X-X-X-X-X---------------|
|-10101010101010109-9-9-9-9-9-9-9-6-6-6-6-6-6-6-6-1-0-0--1-0-0--|
|-------------------------------------------------1-0-0--1-0-0--|
|                                                   ...    ...  |
|---------------------------------------------------------------|
|---------------------------------------------------------------|
|---------------------------------------------------------------|
|-5-5-5-5-5-5-5-5-5-5-5-5-5-5-5-5-1-1-1-1-1-1-1-1---------------|
|-5-5-5-5-5-5-5-5-5-5-5-5-5-5-5-5-1-1-1-1-1-1-1-1-1-0-0--1-0-0--|
|-5-5-5-5-5-5-5-5-5-5-5-5-5-5-5-5-1-1-1-1-1-1-1-1-1-0-0--1-0-0--|
                                                    ...    ...

|---------------------------------------------------------------|
|---------------------------------------------------------------|
|-121212121212121211111111111111118-8-8-8-8-8-8-8---------------|
|-X-X-X-X-X-X-X-X-X-X-X-X-X-X-X-X-X-X-X-X-X-X-X-X-----1------1--|
|-10101010101010109-9-9-9-9-9-9-9-6-6-6-6-6-6-6-6-11111--11111--|
|-------------------------------------------------11111--11111--|
|                                                 ....   ....   |
|---------------------------------------------------------------|
|---------------------------------------------------------------|
|---------------------------------------------------------------|
|-5-5-5-5-5-5-5-5-5-5-5-5-5-5-5-5-1-1-1-1-1-1-1-1-----1------1--|
|-5-5-5-5-5-5-5-5-5-5-5-5-5-5-5-5-1-1-1-1-1-1-1-1-11111--11111--|
|-5-5-5-5-5-5-5-5-5-5-5-5-5-5-5-5-1-1-1-1-1-1-1-1-11111--11111--|
                                                  ....   ....

|---------------------------------------------------------------|
|---------------------------------------------------------------|
|-121212121212121211111111111111118-8-8-8-8-8-8-8---------------|
|-X-X-X-X-X-X-X-X-X-X-X-X-X-X-X-X-X-X-X-X-X-X-X-X---------------|
|-10101010101010109-9-9-9-9-9-9-9-6-6-6-6-6-6-6-6-1-0-0--1-0-0--|
|-------------------------------------------------1-0-0--1-0-0--|
|                                                   ...    ...  |
|---------------------------------------------------------------|
|---------------------------------------------------------------|
|---------------------------------------------------------------|
|-5-5-5-5-5-5-5-5-5-5-5-5-5-5-5-5-1-1-1-1-1-1-1-1---------------|
|-5-5-5-5-5-5-5-5-5-5-5-5-5-5-5-5-1-1-1-1-1-1-1-1-1-0-0--1-0-0--|
|-5-5-5-5-5-5-5-5-5-5-5-5-5-5-5-5-1-1-1-1-1-1-1-1-1-0-0--1-0-0--|
                                                    ...    ...

|----------------------------------------------------------------|
|----------------------------------------------5-----------------|
|----------------------------------------------8-----------------|
|-0--------------0--------------0--------------------------------|
|-0--------0-0-0-0--------0-0-0-0--------0-0-0----------0--0--0--|
|-0--------0-0-0-0--------0-0-0-0--------0-0-0----------0--0--0--|
           .....          .....          .....          .......

|-----------------------------------------------------------------|
|-----------------------------------------------------------------|
|-----------------------------------------------------------------|
|-----------------------------------------------------------------|
|-000000000-0-0----000-0-0-0-0----000000000-0-0----000-0-0-0-0----|
|-000000000-0-0----000-0-0-0-0----000000000-0-0----000-0-0-0-0----|
  .............    ...........    .............    ...........

|-----------------------------------------------------------------|
|-----------------------------------------------------------------|
|-----------------------------------------------------------------|
|-----------------------------------------------------------------|
|-000000000-0-0----000-0-0-0-0----000000000-0-0----000-0-0--------|
|-000000000-0-0----000-0-0-0-0----000000000-0-0----000-0-0--------|
  .............    ...........    .............    .......

X4
|-----------------------------------------------------------------|
|---------------------------------5---5---5---5---5---5---5---5---|
|-----------------------------------8---8---8---8---8---8---8---8-|
|-----------------------------------------------------------------|
|-0-0-0---0-0-0---0-0-0---0-0-0-----------------------------------|
|-0-0-0---0-0-0---0-0-0---0-0-0-----------------------------------|
| .....   .....   .....   .....   ~~~~~~~~~~~~~~~~~~~~~~~~~~~~~~~ |
|-----------------------------------------------------------------|
|-----------------------------------------------------------------|
|-----------------------------------------------------------------|
|-----------------------------------------------------------------|
|-0-0-0---0-0-0---0-0-0---0-0-0---0-0-0---0-0-0---0-0-0---0-0-0---|
|-0-0-0---0-0-0---0-0-0---0-0-0---0-0-0---0-0-0---0-0-0---0-0-0---|
  .....   .....   .....   .....   .....   .....   .....   .....

|--------------------------------|
|--------------------------------|
|--------------------------------|
|-----0--------------------------|
|-0-0-0--------------------------|
|-0-0-0--------------------------|
  ...

            
            
Suggest correction
Creating personal tab
Creating personal tab
You can edit any tab online and save it as your Personal.

You can edit, replace or remove any tab part or add personal notes – all changes will be seen only by you.

Personal tabs can be accessed anytime from any device, even offline.
Learn more »
Give kudos to tab author, rate the tab!
1 2 3 4 5
comments
print report bad tab
guest
You may want to rate the tab now too:
select rating
Wanna post a correction for this tab? Suggest correction