Oops, an error
Loading. Please wait.

Naenia tab

version 3
version 3

Whole song

Interactive

1,334 views 1 this week
no commentswrite comment
1 2 3 4 5
2 more votes to show rating
add to favorites
×
Save as Personal and add changes to this tab that will be seen only by you. Learn more ›
×
You can save this tab as Personal to edit and correct it or add notes. All changes will be seen only by you. Learn more »
launch autoscroll
font size
0
reset
how to read this tab
guitar tuner
edit
Autoscroll
slow
fast
+/-
esc
set tempo
stop
-------------------------------------------------------------------------------
                           Naenia - It Dies Today
-------------------------------------------------------------------------------
Tabbed by: metalmonkey147
Email:

Tuning: Drop C

|---------------------------------------------------------------------------|
|---------------------------------------------------------------------------|
|---------------------------------------------------------------------------|
|-5---5-5-----------5---5-5---X-X-----X-X---1---1-1--------3---3-3-----13\--|
|-5---5-5-----------5---5-5---X-X-----X-X---1---1-1--------3---3-3-----13\--|
|-5---5-5-----------5---5-5---X-X-----X-X---1---1-1--------3---3-3-----13\--|

|-------------------------------------------------|
|-------------------------------------------------|
|-----------5-7-5---5-------------5h7-7h8-7~------|
|-5---5-5---------8---7-5---5-5-------------------|
|-5---5-5---------------5---5-5-------------------|
|-5---5-5---------------5---5-5-------------------|

|-------------------------------------------------|
|-------------------------------------------------|
|-----------5---------------------5-------3h5p3---|
|-1---1-1-------7---5h7-3---3-3-------------------|
|-1---1-1---------------3---3-3-------------------|
|-1---1-1-----0---0-----3---3-3-------0-0---------|
              .   .                   . .

|-------------------------------------------------|
|-------------------------------------------------|
|-----------5-7-5---5-------------5h7-7h8-7~------|
|-5---5-5---------8---7-5---5-5-------------------|
|-5---5-5---------------5---5-5-------------------|
|-5---5-5---------------5---5-5-------------------|

|-------------------------------------------------|
|-------------------------------------------------|
|-----------5---------------------5-------3h5p3---|
|-1---1-1-------7---5h7-3---3-3-------------------|
|-1---1-1---------------3---3-3-------------------|
|-1---1-1-----0---0-----3---3-3-------0-0---------|
              .   .                   . .

|-------------------------------------------------|
|-------------------------------------------------|
|-------------------------------------------------|
|-------------------------------------------------|
|-5-5-5-5-5-5-5-5-5-5-5-5-5-5-5-5-5-5-5-7-7-7-3-3-|
|-5-5-5-5-5-5-5-5-5-5-5-5-5-5-5-5-5-5-5-7-7-7-3-3-|
  . . . . . . . . . . . . . . . . . . . . . . . .

|-------------------------------------------------|
|-------------------------------------------------|
|-------------------------------------------------|
|-------------------------------------------------|
|-1-1-1-1-1-1-1-1-1-1-1-1-3-3-3-3-3-3-3-3-3-3-3-3-|
|-1-1-1-1-1-1-1-1-1-1-1-1-3-3-3-3-3-3-3-3-3-3-3-3-|
  . . . . . . . . . . . . . . . . . . . . . . . .

|-------------------------------------------------|
|-------------------------------------------------|
|-------------------------------------------------|
|-------------------------------------------------|
|-5-5-5-5-5-5-5-5-5-5-5-5-5-5-5-5-5-5-5-7-7-7-3-3-|
|-5-5-5-5-5-5-5-5-5-5-5-5-5-5-5-5-5-5-5-7-7-7-3-3-|
  . . . . . . . . . . . . . . . . . . . . . . . .

|-------------------------------------------------|
|-------------------------------------------------|
|-------------------------------------------------|
|-------------------------------------------------|
|-1-1-1-1-1-1-1-1-1-1-1-1-3-3-3-3-3-3-3-3-3-3-3-3-|
|-1-1-1-1-1-1-1-1-1-1-1-1-3-3-3-3-3-3-3-3-3-3-3-3-|
  . . . . . . . . . . . . . . . . . . . . . . . .

|-------------------------------------------------|
|-------------------------------------------------|
|-----------5-7-5---5-------------5h7-7h8-7~------|
|-5---5-5---------8---7-5---5-5-------------------|
|-5---5-5---------------5---5-5-------------------|
|-5---5-5---------------5---5-5-------------------|

|-------------------------------------------------|
|-------------------------------------------------|
|-----------5---------------------5-------3h5p3---|
|-1---1-1-------7---5h7-3---3-3-------------------|
|-1---1-1---------------3---3-3-------------------|
|-1---1-1-----0---0-----3---3-3-------0-0---------|
              .   .                   . .

|---------------------------------------------------------------------------|
|---------------------------------------------------------------------------|
|---------------------------------------------------------------------------|
|-12-12-12-12-12-12-10-10-10-10-10-10---------------------------------------| x3
|-------------------------------------13-13-13-13-13-13-12-12-13-13-12-12---|
|---------------------------------------------------------------------------|

|---------------------------------------------------------------------------|
|-------------------------------------------------------------------18------|
|-------------------------------------------------------------14------------|
|-12-12-12-12-12-12-15-15-15-15-15-15-12-12-12-12-12-12-12------------------|
|---------------------------------------------------------------------------|
|---------------------------------------------------------------------------|

|---------------------------------------------------------------------------|
|-15-----------------13-----------------15--------------------------18------|
|-------------------------------------------------------------14------------|
|---------------------------------------------------------------------------|
|---------------------------------------------------------------------------|
|---------------------------------------------------------------------------|

|---------------------------------------|
|-15-----------------13-----------------|
|---------------------------------------|
|---------------------------------------|
|---------------------------------------|
|---------------------------------------|

|---------------------------------------|
|---------------------------------------|
|---------------------------------------|
|-5---5-5---------5---5-5---13\---------|
|-5---5-5---------5---5-5---13\---------|
|-5---5-5---------5---5-5---13\---------|

|-------------------------------------------------|
|-------------------------------------------------|
|-------------------------------------------------|
|-------------------------------------------------|
|-5-5-5-5-5-5-5-5-5-5-5-5-5-5-5-5-5-5-5-7-7-7-3-3-|
|-5-5-5-5-5-5-5-5-5-5-5-5-5-5-5-5-5-5-5-7-7-7-3-3-|
  . . . . . . . . . . . . . . . . . . . . . . . .

|-------------------------------------------------|
|-------------------------------------------------|
|-------------------------------------------------|
|-------------------------------------------------|
|-1-1-1-1-1-1-1-1-1-1-1-1-3-3-3-3-3-3-3-3-3-3-3-3-|
|-1-1-1-1-1-1-1-1-1-1-1-1-3-3-3-3-3-3-3-3-3-3-3-3-|
  . . . . . . . . . . . . . . . . . . . . . . . .

|-------------------------------------------------|
|-------------------------------------------------|
|-------------------------------------------------|
|-------------------------------------------------|
|-5-5-5-5-5-5-5-5-5-5-5-5-5-5-5-5-5-5-5-7-7-7-3-3-|
|-5-5-5-5-5-5-5-5-5-5-5-5-5-5-5-5-5-5-5-7-7-7-3-3-|
  . . . . . . . . . . . . . . . . . . . . . . . .

|-------------------------------------------------|
|-------------------------------------------------|
|-------------------------------------------------|
|-------------------------------------------------|
|-1-1-1-1-1-1-1-1-1-1-1-1-3-3-3-3-3-3-3-3-3-3-3-3-|
|-1-1-1-1-1-1-1-1-1-1-1-1-3-3-3-3-3-3-3-3-3-3-3-3-|
  . . . . . . . . . . . . . . . . . . . . . . . .

|-------------------------------------------------|
|-------------------------------------------------|
|-------------------------------------------------|
|-5---5-5---5-5---5-5-5-5-5---5-5---5-5---5-5-5-5-|
|-5---5-5---5-5---5-5-5-5-5---5-5---5-5---5-5-5-5-|
|-5---5-5---5-5---5-5-5-5-5---5-5---5-5---5-5-5-5-|

|-------------------------------------------------|
|-------------------------------------------------|
|-------------------------------------------------|
|-1---1-1---1-1---1-1-1-1-3---3-3---3-3---3-3-3-3-|
|-1---1-1---1-1---1-1-1-1-3---3-3---3-3---3-3-3-3-|
|-1---1-1---1-1---1-1-1-1-3---3-3---3-3---3-3-3-3-|

|-------------------------------------------------|
|-------------------------------------------------|
|-------------------------------------------------|
|-5---5-5---5-5---5-5-5-5-5---5-5---5-5---5-5-5-5-|
|-5---5-5---5-5---5-5-5-5-5---5-5---5-5---5-5-5-5-|
|-5---5-5---5-5---5-5-5-5-5---5-5---5-5---5-5-5-5-|

|-------------------------------------------------|
|-------------------------------------------------|
|-------------------------------------------------|
|-1---1-1---1-1---1-1-1-1-3---3-3---3-3---3-3-3-3-|
|-1---1-1---1-1---1-1-1-1-3---3-3---3-3---3-3-3-3-|
|-1---1-1---1-1---1-1-1-1-3---3-3---3-3---3-3-3-3-|

|---------------------------------------------------------------------------|
|---------------------------------------------------------------------------|
|---------------------------------------------------------------------------|
|-12-12-12-12-12-12-10-10-10-10-10-10---------------------------------------| x3
|-------------------------------------13-13-13-13-13-13-12-12-13-13-12-12---|
|---------------------------------------------------------------------------|

|---------------------------------------------------------------------------|
|-------------------------------------------------------------------18------|
|-------------------------------------------------------------14------------|
|-12-12-12-12-12-12-15-15-15-15-15-15-12-12-12-12-12-12-12------------------|
|---------------------------------------------------------------------------|
|---------------------------------------------------------------------------|

|---------------------------------------------------------------------------|
|-15-----------------13-----------------15--------------------------18------|
|-------------------------------------------------------------14------------|
|---------------------------------------------------------------------------|
|---------------------------------------------------------------------------|
|---------------------------------------------------------------------------|

|---------------------------------------|
|-15-----------------13-----------------|
|---------------------------------------|
|---------------------------------------|
|---------------------------------------|
|---------------------------------------|

|---------------------------------------------|
|---------------------------------------------|
|---------------------------------------------|
|-5--------(5)------------(5)-----3-3-3-3-3-3-|
|-5--------(5)------------(5)-----3-3-3-3-3-3-|
|-5--------(5)------------(5)-----3-3-3-3-3-3-|

|--------------------------------------------------|
|--------------------------------------------------|
|--------------------------------------------------|
|-1-----1-----7---5---3h5-1-----1-----7---5---3h5--|
|-1-1-1-1-1-1-------------1-1-1-1-1-1--------------|
|-1-1-1-1-1-1---0---0-----1-1-1-1-1-1---0---0------|
    . .   . .   .   .       . .   . .   .   .

|---------------------------------------------------|
|---------------------------------------------------|
|---------------------------------------------------|
|-5---5-5-5-5-5---5-5-5-5-5---5-5-5-5-5---5-5-5-5---|
|-5---5-5-5-5-5---5-5-5-5-5---5-5-5-5-5---5-5-5-5---|
|-5---5-5-5-5-5---5-5-5-5-5---5-5-5-5-5---5-5-5-5---|

|--------------------------------------------------|
|--------------------------------------------------|
|--------------------------------------------------|
|-1-----1-----7---5---3h5-1-----1-----7---5---3h5--|
|-1-1-1-1-1-1-------------1-1-1-1-1-1--------------|
|-1-1-1-1-1-1---0---0-----1-1-1-1-1-1---0---0------|
    . .   . .   .   .       . .   . .   .   .

|---------------------------------------------------|
|---------------------------------------------------|
|---------------------------------------------------|
|-5---5-5-5-5-5---5-5-5-5-3---3-3-3-3-3---3-3-3-3---|
|-5---5-5-5-5-5---5-5-5-5-3---3-3-3-3-3---3-3-3-3---|
|-5---5-5-5-5-5---5-5-5-5-3---3-3-3-3-3---3-3-3-3---|

|--------------------------------------------------|
|--------------------------------------------------|
|--------------------------------------------------|
|-1-----1-----7---5---3h5-1-----1-----7---5---3h5--|
|-1-1-1-1-1-1-------------1-1-1-1-1-1--------------|
|-1-1-1-1-1-1---0---0-----1-1-1-1-1-1---0---0------|
    . .   . .   .   .       . .   . .   .   .

|---------------------------------------------------|
|---------------------------------------------------|
|---------------------------------------------------|
|-5---5-5-5-5-5---5-5-5-5-3---3-3-3-3-3---3-3-3-3---|
|-5---5-5-5-5-5---5-5-5-5-3---3-3-3-3-3---3-3-3-3---|
|-5---5-5-5-5-5---5-5-5-5-3---3-3-3-3-3---3-3-3-3---|

|---------------------------------------------------|
|---------------------------------------------------|
|---------------------------------------------------|
|-1---1-1-1-1-1---1-1-1-1-1---1-1-1-1-1---1-1-1-1---|
|-1---1-1-1-1-1---1-1-1-1-1---1-1-1-1-1---1-1-1-1---|
|-1---1-1-1-1-1---1-1-1-1-1---1-1-1-1-1---1-1-1-1---|

|---------------------------------------------------------------------------|
|---------------------------------------------------------------------------|
|---------------------------------------------------------------------------|
|-12-12-12-12-12-12-10-10-10-10-10-10---------------------------------------| x3
|-------------------------------------13-13-13-13-13-13-12-12-13-13-12-12---|
|---------------------------------------------------------------------------|

|---------------------------------------------------------------------------|
|-------------------------------------------------------------------18------|
|-------------------------------------------------------------14------------|
|-12-12-12-12-12-12-15-15-15-15-15-15-12-12-12-12-12-12-12------------------|
|---------------------------------------------------------------------------|
|---------------------------------------------------------------------------|

|---------------------------------------------------------------------------|
|-15-----------------13-----------------15--------------------------18------|
|-------------------------------------------------------------14------------|
|---------------------------------------------------------------------------|
|---------------------------------------------------------------------------|
|---------------------------------------------------------------------------|

|---------------------------------------|
|-15-----------------13-----------------|
|---------------------------------------|
|---------------------------------------| x3
|---------------------------------------|
|---------------------------------------|

 Ok the timing on this last part is really weird, it took me forever to figure it out so 
dont know
if this will look right, the notes are right and in order tho, it'll take some trial and 
for you to
get it perfect

|---------------------------------------------------------------------------|
|-15-----18---16---15-----13---15---16---13h15---------------------13h15----|
|-----------------------------------------------12--------------------------|
|---------------------------------------------------------------------------|
|---------------------------------------------------------------------------|
|---------------------------------------------------------------------------|

|---------------------------------------------------------------------------|
|------18---15-----------------13-------------------------------------------|
|-14----------------------------------------------14------------------------|
|---------------------------------------------------------------------------|
|---------------------------------------------------------------------------|
|---------------------------------------------------------------------------|

************************************

| .   palm mute
| /   slide up
| \   slide down
| h   hammer-on
| p   pull-off
| ~   vibrato
| *   harmonic
| x   Mute note
| b   Bend
| pb  Pre-bend
| br  Bend release
| pbr Pre-bend release
| brb Bend release bend

************************************

            
            
Suggest correction
Creating personal tab
Creating personal tab
You can edit any tab online and save it as your Personal.

You can edit, replace or remove any tab part or add personal notes – all changes will be seen only by you.

Personal tabs can be accessed anytime from any device, even offline.
Learn more »
Give kudos to tab author, rate the tab!
1 2 3 4 5
comments
print report bad tab
guest
You may want to rate the tab now too:
select rating
Wanna post a correction for this tab? Suggest correction