Oops, an error
Loading. Please wait.

Sacred Heart guitar pro

2,885 views 1 this week
4 commentsread comments
1 2 3 4 5
1 last vote to show rating
add to favorites
guitar tuner
Autoscroll
slow
fast
+/-
esc
set tempo
stop
"Sacred Heart"
demo version
Play now

or get full version for Free

×
Get full version now!
Learn and play this song
in Tab Pro
Try for free

or get $10 off Welcome Bonus

Get welcome bonus
Get access to Tab Pro version of “Sacred Heart”!
Tab Pro is a premium guitar tab service, available on PC, Mac, iOS and Android
TRY FOR FREE
To download “Sacred Heart” Guitar Pro tab click button below
Please note that you must have Guitar Pro software installed on your
computer in order to view this file.
Suggest correction
Give kudos to tab author, rate the tab!
1 2 3 4 5
comments
report bad tab
4 comments total. Showing first comments.
0 reply
Shorty_rox_06 492 Mar 09, 2010 01:23 AM

nice job on the tab man..

0 reply
Brain-Death 10 Dec 18, 2010 02:19 PM

Good tub, but not perfect, there are some mistakes.

The Corus is more like:

E  E  E  E  E  E  E  E     E   E  E  E  E  E  E    E   
---------------------------|-----------------------------|
---------------------------|-----------------------------|
--10-----------------------|--5s--7--7-----------7s--10--|
--10--5--5--5--5--5--5--5--|--5s--7--7--0--3--0--7s--10--|
---8--5--5--5--5--5--5--5--|--3s--5--5--0--3--0--5s---8--|
------5--5--5--5--5--5--5--|------------0--3--0----------|

E E E E E E E E E E E E E E E E
---------------------------|-----------------------------|
---------------------------|-----------------------------|
--10-----------------------|--5s--7--7-----------7s--10--|
--10--8--8--8--8--8--8--8--|--5s--7--7--0--3--0--7s--10--|
---8--8--8--8--8--8--8--8--|--3s--5--5--0--3--0--5s---8--|
------8--8--8--8--8--8--8--|------------0--3--0----------|

E E E E E E E E E E E E E E E E
---------------------------|--------------------------|
---------------------------|--------------------------|
--10-----------------------|--------4--4--4--4--4-----|
--10--5--5--5--5--5--5--2--|--L--2--2--2--2--2--2--3--|
---8--5--5--5--5--5--5--3--|--L--3--3--3--3--3--3--3--|
------5--5--5--5--5--5--2--|--L--2--2--2--2--2--2--3--|

E E E E E E E E
--------------------------|
--------------------------|
--------------------------|
--L--3--3--3--3--3--3--3--|
--L--3--3--3--3--3--3--3--|
--L--3--3--3--3--3--3--3--|


I mean the part with the

And the Bridge is also like this

0 reply
Brain-Death 10 Dec 18, 2010 02:21 PM

The PArt with

guest
You may want to rate the tab now too:
select rating