Oops, an error
Loading. Please wait.

Freak Out Baby chords

2,597 views 1 this week
3 commentsread comments
1 2 3 4 5
3 more votes to show rating
add to favorites
×
Save as Personal and add changes to this tab that will be seen only by you. Learn more ›
×
You can save this tab as Personal to edit and correct it or add notes. All changes will be seen only by you. Learn more »
launch autoscroll
font size
0
reset
transpose
0
reset
simplify chords
display chords
guitar tuner
edit
Autoscroll
slow
fast
+/-
esc
set tempo
stop
Strumming
There is no strumming pattern for this song yet. and get +5 IQ
Title: Freak Out Baby
Artist: Itchyworms

For any comments and Suggestion:

Text Me: 09082360710/09156169501
Friendster: boybassista@yahoo.com


Intro: C9-D9-Em8-Bm (3x) then C9-D9-Em9

Chorus:

C9          D9          Em
Huwag kang mailang pag may kasama na'ko
C9               D9           Em       Bm7
Di ko na ngayon problema'ng feelings mo
C9            D9
Freak out, freak out baby
Em              Bm7
Huwag kang magfreak-out, baby
C9           D9      Em
Freak out freak out, baby

C            D                    Em
Makakahanap ka pa, sigurado yan, ikaw pa
                Bm
Meron ka naman hitsura

 C             D
Bakit mo pa ko gustO?
           Em
Ako ay tarantado...
              Bm7
Hindi ako bagay sayo....


Pre-Chorus:

D                                       Am7
You dont deserve someone who's mean to you
D                             C  Am
I think we both need to see someone new

Verse 3:

C                    D
Commitment bang gusto mo?
               Fm                         Bm7
Eh may querida ako,, COmpatible tayong tatlo?

C               D
Tumingin ka sa salamin,
                     Em7
Di bat kasalanan mo rin?
                     Bm
Masyado ka kasing mahinhin

(repeat pre-chorus)
(chorus)

            
            
Suggest correction
Creating personal tab
Creating personal tab
You can edit any tab online and save it as your Personal.

You can edit, replace or remove any tab part or add personal notes – all changes will be seen only by you.

Personal tabs can be accessed anytime from any device, even offline.
Learn more »
Give kudos to tab author, rate the tab!
1 2 3 4 5
comments
print report bad tab
3 comments total.
0 reply
trylang 1,855 May 16, 2010 04:15 AM

try niyo to sa verse:
palm muted to

e|--------------------- -----------------------
B|--------------------- -----------------------
G|---77---7---7---7h9-- 3x -------------------7h9-
D|-9----9---9---9------ ----77----7----7-9-----
A|--------------------- -10----10---10---------
E|--------------------- -----------------------

0 reply
trylang 1,855 May 16, 2010 04:17 AM

try niyo to sa verse:
palm muted to

e|--------------------- -----------------------
B|--------------------- -----------------------
G|---77---7---7---7h9-- 3x -------------------7h9-
D|-9----9---9---9------ ----77----7----7-9-----
A|--------------------- -10----10---10---------
E|--------------------- -----------------------

0 reply
markchordz 16,994 May 20, 2010 12:44 AM

e|--------------------- -----------------------
B|--------------------- -----------------------
G|---77---7---7---7h9-- 3x -------------------7h9-
D|-9----9---9---9------ ----77----7----7-9-----
A|--------------------- -10----10---10---------
E|--------------------- -----------------------

diba nakadelay at nakaclean sa part na nito???? di ko pa

figure out un correct sequence nito

guest
You may want to rate the tab now too:
select rating
Wanna post a correction for this tab? Suggest correction