Oops, an error
Loading. Please wait.

Ilalim Ng Buwan bass

315 views 1 this week
no commentswrite comment
1 2 3 4 5
3 more votes to show rating
add to favorites
×
Save as Personal and add changes to this tab that will be seen only by you. Learn more ›
×
You can save this tab as Personal to edit and correct it or add notes. All changes will be seen only by you. Learn more »
launch autoscroll
font size
0
reset
guitar tuner
edit
Autoscroll
slow
fast
+/-
esc
set tempo
stop
Author
Ilalim Ng Buwan
by Itchyworms

Intro:

G|-twit-|---------|--------------------|--------------------|
D|-twit-|---------|--------------------|------------------2-|
A|-twit-|---------|--------------------|----------------3---|
E|-twit-|-0h5~~~~-|-0h5555555555555555-|-55555555---0-4-----|

Verse 1
   A			D			 A          Eaug
G|-------------------|------------------|------------------|--------------------|
D|-------------------|------------------|------------------|------------------2-|
A|-------------------|------------------|-5555555555555555-|----------------3---|
E|-5555555555555555--|-5555555555555555-|------------------|-55555555---0-4-----|
  Tatlong huwebes na ang dumaan, ‘Di pa rin nasasakyan na wala ka na

   A							D	A          
G|-------------------|------------------|------------------|------------------|
D|-------------------|------------------|------------------|---------77777777-|
A|-------------------|------------------|-5555555555555555-|------------------|
E|-5555555555555555--|-5555555555555555-|------------------|-55555555---------|
  Iniwanan na ng panahon, ‘di pa rin makaahon, swimming sa luha

   F#m                B                                               
G|-------------------|-----------------|
D|-------------------|-----------------|
A|-------------------|-2(2)—0h2-222222-|
E|-5/2(2)—0h2-222222-|-----------------|
   Ginagawa kahit ano, matapos lang ang gabing ito

   Bm7     E
G|-------------------|
D|-------------------|
A|-2222-2------------|
E|-------4-20-000000-|
  Bakit ang bagal ng relo?

Chorus 1
   DM7      Dm+M7
G|----------------|
D|----------------|
A|-5(5)-5-55-7777-|
E|-----5----------|
  Naninikip ang tiyan nakatingin sa buwan

  A          F#m
G|----------|------------|
D|----------|------------|
A|----------|------------|
E|-55555555-|-0h2-222222-|
  Malayo ka’t wala nang magawa

  B7                   Dm+M7
G|--------------|----------|
D|--------------|----------|
A|--------------|-55555555-|
E|-7---0-5/7-77-|----------|
  Hanap ang ‘yong kamay, wala ‘kong kaakbay

  A           F#m
G|----------|----------|
D|----------|----------|
A|----------|----------|
E|-55555555-|-22222222-|
  Nasan ka na kaya?

  Dm
G|-----------|
D|-----------|
A|-5~~~~~~~~-|
E|-----------|
  Parang kahapon lang... 

  A          F#m
G|----------|----------|
D|----------|----------|
A|----------|----------|
E|-55555555-|-22222222-|
  ... tayo ay magkaya...

  Dm 
G|-----------|
D|-----------|
A|-5~~~~~~~~-|
E|-----------|
... kap sa ilalim ng ...

  A        F#m           A
G|---------------------|--------------------|
D|---------------------|------------------2-|
A|---------------------|----------------3---|
E|-555555---0h2-222222-|-55555555---0-4-----|
... buwan. Oh ho ...     Ilalim ng buwan.

Verse 2
   A			D	              A                  E
G|-------------------|------------------|------------------|-----------------|
D|-------------------|------------------|------------------|-----------------|
A|-------------------|------------------|-5555555555555555-|--------77777777-|
E|-5555555555555555--|-5555555555555555-|------------------|-5555555---------|
  Ilang beses kung aking tignan (Ang) maganda mong larawan bago humiga

   A					D			 A          
G|-------------------|------------------|------------------|------------------|
D|-------------------|------------------|------------------|---------77777777-|
A|-------------------|------------------|-5555555555555555-|------------------|
E|-5555555555555555--|-5555555555555555-|------------------|-55555555---------|
  Umaasa sa panaginip, kahit na isang idlip, na makita ka

   F#m                B                                               
G|-------------------|-----------------|
D|-------------------|-----------------|
A|-------------------|-2(2)—0h2-222222-|
E|-5/2(2)—0h2-222222-|-----------------|
   Hindi pa rin mapakali, di maamoy ang yong pisngi,

   Bm7     E
G|-------------------|
D|-------------------|
A|-2222-2------------|
E|-------4-20-000000-|
  Kahit na konting sandali

Chorus 2
   DM7      Dm+M7
G|----------------|
D|----------------|
A|-5(5)-5-55-7777-|
E|-----5----------|
  Naninikip ang tiyan nakatingin sa buwan

  A          F#m
G|----------|------------|
D|----------|------------|
A|----------|------------|
E|-55555555-|-0h2-222222-|
  Malayo ka’t wala nang magawa

  B7              Dm+M7
G|--------------|----------|
D|--------------|----------|
A|--------------|-55555555-|
E|-7---0-5/7-77-|----------|
  Hanap ang ‘yong kamay, wala ‘kong kaakbay

  A           F#m
G|----------|----------|
D|----------|----------|
A|----------|----------|
E|-55555555-|-22222222-|
  Nasan ka na kaya?

  Dm
G|-----------|
D|-----------|
A|-5~~~~~~~~-|
E|-----------|
  Parang kahapon lang... 

  A          F#m         Dm 
G|----------|----------|------7-----------|
D|----------|----------|-----7-7----------|
A|----------|----------|-5~~~----5~~~-----|
E|-55555555-|-22222222-|--------------10\-|
  ... tayo ay magkaya ...kap sa ilalim ng ...

  A         F#m           A        F#m
G|---------------------|---------------------|
D|---------------------|---------------------|
A|---------------------|---------------------|
E|-555555---0h2-222222-|-555555---0h2-222222-|
... buwan. Oh ho ...     Ilalim ng buwan. Ha ah ...

  F                A
G|----------------|-------------------|
D|-----3---3---3--|------7---7---7777-|
A|----3-3-3-3-3-3-|-----7-7-7-7-7-----|
E|-1-----1---1----|-/5-----5---5------|
  Ilalim ng buwa ----- an

INSTRUMENTAL: 
  D                     A                 F#m
G|---------------------|---------------------|
D|---------------------|---------------------|
A|-555-x5-555-x5-555-x-|---------------------|
E|---------------------|-555-x5-555-x-222255-|

  D                     A                 C#7
G|---------------------|---------------------|
D|---------------------|---------------------|
A|-555-x5-555-x5-555-x-|---------------------|
E|---------------------|-555-x5-555-x5-7-9---|

BRIDGE
  F#m  B     F#m  B
G|----------|----------|
D|----------|----------|
A|-----2~~~-|-----2~~~-|
E|-2-2------|-2-2------|
  ‘Pag nag iisa iniisip kita

  Em   A     Em   A
G|----------|----------|
D|----------|----------|
A|-7-7------|-7-7------|
E|-----5~~~-|-----5~~~-|
  Babalik ka ba, nasa’n ka kaya?

  F#m     B     F#m       B
G|---------------|---------------|
D|----------4444-|----------4444-|
A|--------2------|--------2------|
E|-2222222-------|-2222222-------|
  ‘Wag magluluha, ‘wag mag-alala

   Em     A        Em     A
G|----------9999-|----------9999-|
D|--------7------|--------7------|
A|-7777777-------|-7777777-------|
E|---------------|---------------|
  Nandito lang ako naghihintay sa ‘yo sa ilalim ng . . .


  D                  Dm7        G           A
G|--------------7--|---------------------|------------------------------------|
D|-------------7-7-|---------------------|------------------------------------|
A|-5-x555x-55x-----|-5-5-x55-------------|------------------------------------|
E|-----------------|--------7-5-3-333333-|-555555555-55555555-55555555-555555-|
  . . . buwan        Ilalim ng buwan

            
            
Suggest correction
Creating personal tab
Creating personal tab
You can edit any tab online and save it as your Personal.

You can edit, replace or remove any tab part or add personal notes – all changes will be seen only by you.

Personal tabs can be accessed anytime from any device, even offline.
Learn more »
Give kudos to tab author, rate the tab!
1 2 3 4 5
comments
print report bad tab
guest
You may want to rate the tab now too:
select rating
Wanna post a correction for this tab? Suggest correction