Oops, an error
Loading. Please wait.

Dreaming tab

by IU
6,322 views 3 this week
2 commentsread comments
1 2 3 4 5
1 last vote to show rating
add to favorites
×
Save as Personal and add changes to this tab that will be seen only by you. Learn more ›
×
You can save this tab as Personal to edit and correct it or add notes. All changes will be seen only by you. Learn more »
launch autoscroll
font size
0
reset
how to read this tab
guitar tuner
edit
Autoscroll
slow
fast
+/-
esc
set tempo
stop
Author
Difficulty
-------------------------------------------------------------------------
                             Dreaming – IU
-------------------------------------------------------------------------

Tuning:Standard

Chords
|----------------------------------|
|Tuning         | E A D G B e
| Dmaj7         | x x 0 2 2 2
| A             | x 0 2 2 2 0
| A/C           | x 4 3 2 0 0
| Bm11          | x 2 0 2 3 0
| Amaj7         | x 0 2 1 2 0
|----------------------------------|

Intro: Alternation between the Dmaj7 and the A chords. Play intro twice.
 
      Dmaj7           A            Dmaj7               A
e|----2--------|-------------|----2--------|-------2-------------|
B|---2---------|----2--------|---2---------|----2----2-----------|
G|--2----------|---2---------|--2----------|---2--2-2-2----------|
D|-0-----------|--2----------|-0-----------|--2------------------|
A|-------------|-0-----------|-------------|-0-------------------|
E|-------------|-------------|-------------|---------------------| x2

Verse/Chorus

   Dmaj7            A/C            Bm11            Amaj7
e|--2-2----------|--0-0----------|---------------|---------------|
B|--2-2----------|--0-0----------|--3-3----------|--2-2----------|
G|--2-2----------|--2-2----------|--2-2----------|--1-1----------|
D|-0--0----------|---------------|---------------|---------------|
A|---------------|-4--4----------|-2--2----------|-0--0----------|
E|---------------|---------------|---------------|---------------| x4

            
            
Suggest correction
Creating personal tab
Creating personal tab
You can edit any tab online and save it as your Personal.

You can edit, replace or remove any tab part or add personal notes – all changes will be seen only by you.

Personal tabs can be accessed anytime from any device, even offline.
Learn more »
Give kudos to tab author, rate the tab!
1 2 3 4 5
comments
print report bad tab
2 comments total.
0 reply
panipella 10 Jun 18, 2014 10:22 AM

Dmaj7 A/C Bm11 Amaj7
e|--2-2----------|--0-0----------|---------------|---------------|
B|--2-2----------|--0-0----------|--3-3----------|--2-2----------|
G|--2-2----------|--2-2----------|--2-2----------|--1-1----------|
D|-0--0----------|---------------|---------------|---------------|
A|---------------|-4--4----------|-2--2----------|-0--0----------|
E|---------------|---------------|---------------|---------------|

0 reply
panipella 10 Jun 18, 2014 10:23 AM

Dmaj7            A/C            Bm11            Amaj7
e|--2-2----------|--0-0----------|---------------|---------------|
B|--2-2----------|--0-0----------|--3-3----------|--2-2----------|
G|--2-2----------|--2-2----------|--2-2----------|--1-1----------|
D|-0--0----------|---------------|---------------|---------------|
A|---------------|-4--4----------|-2--2----------|-0--0----------|
E|---------------|---------------|---------------|---------------|

guest
You may want to rate the tab now too:
select rating
Wanna post a correction for this tab? Suggest correction