Oops, an error
Loading. Please wait.

Motocross album chords

538 views 3 this week
no commentswrite comment
1 2 3 4 5
1 last vote to show rating
add to favorites
×
Save as Personal and add changes to this tab that will be seen only by you. Learn more ›
×
You can save this tab as Personal to edit and correct it or add notes. All changes will be seen only by you. Learn more »
launch autoscroll
font size
0
reset
transpose
0
reset
display chords
guitar tuner
edit
Autoscroll
slow
fast
+/-
esc
set tempo
stop
Strumming
There is no strumming pattern for this song yet. and get +5 IQ
[Intro]

   Dm           C           Bb
e|-----------1-----------0-----------1-----------1----| X2
B|--------3-----------1-----------3-----------3-------|
G|-----2-----------0-----------3-----------3----------|
D|--0-----------------------3-----------3-------------|
A|--------------3-------------------------------------|
E|----------------------------------------------------|


[Verse]

Dm  C   Bb    Dm       C   Bb
Il 250 giallo di marca giapponese
Dm         C     Bb
due pacchi di cambiali
Dm         C            Bb
però avevo anche gli stivali di cuoio nero.

Dm  C       Bb
Eh ehi dada dadada   X4

Dm        C  Bb   Dm       C       Bb
I due retrovisori e l'alberello di taglio natalizio
Dm        C   Bb
io mi sentivo forte,
Dm       C       Bb     Dm      C     Bb
io ero il più invidiato e stavo bene,
Dm       C Bb
e chi si lamentava
Dm           C       Bb
finché avevo di che pagarmi
Dm       C        Bb
la linfa al mio motore.

[Solo]

   Dm     C    Bb          Dm     C     Bb
e|-------------------------------------------|
B|--6-----5--8--6-----5--8--6-----5--8--6----|
G|-----7-----------7-----------7-------------|
D|-------------------------------------------|
A|-------------------------------------------|
E|-------------------------------------------|

   Dm     C    Bb          Dm     C     Bb
e|------------------------------------------------------------|
B|--6-----5--8--6-----5--8--6-----5--8--------6--6--5---------|
G|-----7-----------7-----------7--------7--------------7------|
D|------------------------------------------------------------|
A|------------------------------------------------------------|
E|------------------------------------------------------------|

[Verse]

Dm         C       Bb Dm     C        Bb
Poi ho conosciuto lei ad una festa in piazza
Dm       C            Bb
lei era magra come un giunco
Dm          C  Bb
coi fianchi da bambina
Dm        C     Bb
lei mi piaceva tanto 
Dm        C       Bb
abbiamo mangiato noccioline americane
Dm        C          Bb
finché io non le ho detto:
Dm          C        Bb
"Facciamo un giro in moto"

[Chorus]

Dm         C  Bb    Dm       C   Bb
Evviva il cross , evviva il motocross
Dm       C      Bb      Dm       C    Bb
avevo anche la donna, evviva il motocross.


[Solo]

   Dm     C    Bb          Dm     C     Bb
e|-------------------------------------------5-5----------|
B|--6-----5--8--6-----5--8--6-----5--8--6----6-6-5--------|
G|-----7-----------7-----------7-------------------6------|
D|--------------------------------------------------------|
A|--------------------------------------------------------|
E|--------------------------------------------------------|

   Dm     C    Bb          Dm     C     Bb
e|--------------------------------------------5-5---------|
B|--6-----5--8--6-----5--8--6-----5--8--6-----6-6-5-------|
G|-----7-----------7-----------7--------------------6-----|
D|--------------------------------------------------------|
A|--------------------------------------------------------|
E|--------------------------------------------------------|


[Verse]
 
Dm       C      Bb   Dm      C        Bb
La nuova superstrada appena fuori dal paese
Dm          C     Bb     Dm      C     Bb
lei mi urla "Qui va bene, fermiamoci a fumare".

Dm  C       Bb
Eh ehi dada dadada   X4

Dm C Bb

Dm      C         Bb
Ed il momento era perfetto,
Dm      C       Bb    Dm 
la stavo per baciare quando all'improvviso
C               Bb        Dm      C        Bb
una manaccia sulla spalla mi fa gelare il cuore,
Dm       C       Bb  Dm     C      Bb
due tipi da galera ed un coltello puntato nella gola
Dm                C
proprio lei mi dice:
Bb           Dm        C      Bb
"Calma amico! Vogliamo il tuo motore"
 
[Chorus]

Dm         C  Bb    Dm         C   Bb
Evviva il cross , evviva il motocross
Dm        C      Bb       Dm       C    Bb
rischiavo la mia pelle, evviva il motocross.

Dm  C       Bb
Eh ehi dada dadada   X4

Dm C Bb Dm C Bb Dm C Bb Dm C Bb

Dm      C        Bb     Dm      C      Bb
Lei lo metteva in moto e mentre uno aspettava accanto a un paracarro,
Dm          C     Bb
quell'altro mi picchiava
Dm      C       Bb
e non guardava dove
Dm      C       Bb   Dm     C       Bb
e se ne sono andati in tre sul mio motore,
Dm       C     Bb     Dm       C      Bb    Dm         C    Bb
lasciandomi soltanto la rabbia da ingoiare, la rabbia da ingoiare...
Dm       C       Bb     Dm       C      Bb
La rabbia da ingoiare, la rabbia da ingoiare...
Dm          C              Bb
La rabbia da, la rabbia da ingoiare.
 
[Chorus]

Dm         C           Bb       Dm         C   Bb
Evviva il cross Evviva il cross, evviva il motocross
Dm       C      Bb    Dm       C    Bb
per una donna ladra, evviva il motocross.

[Outro]

Dm         C Bb    Dm      C   Bb
Evviva il cross, evviva il motocross
Dm       C      Bb    Dm       C    Bb
per una donna ladra, evviva il motocross.  [Ad Libitum...]

            
            
Suggest correction
Creating personal tab
Creating personal tab
You can edit any tab online and save it as your Personal.

You can edit, replace or remove any tab part or add personal notes – all changes will be seen only by you.

Personal tabs can be accessed anytime from any device, even offline.
Learn more »
Give kudos to tab author, rate the tab!
1 2 3 4 5
comments
print report bad tab
guest
You may want to rate the tab now too:
select rating
Wanna post a correction for this tab? Suggest correction