Oops, an error
Loading. Please wait.

Se Namorar chords

4 views 1 this week
no commentswrite comment
1 2 3 4 5
3 more votes to show rating
add to favorites
×
Save as Personal and add changes to this tab that will be seen only by you. Learn more ›
×
You can save this tab as Personal to edit and correct it or add notes. All changes will be seen only by you. Learn more »
launch autoscroll
font size
0
reset
transpose
0
reset
simplify chords
display chords
guitar tuner
edit
Autoscroll
slow
fast
+/-
esc
set tempo
stop
Strumming
There is no strumming pattern for this song yet. and get +5 IQ
[Intro]
                           C  G
E|------3-------------3-------3--|
B|-3/5----5/3-1----------1-1--3--|
G|---------------2/4-----0-0--0--|
D|-----------------------2-2--0--|
A|-----------------------3-3--2--|
E|----------------------------3--|

                           C  G
E|------3---------------------3--|
B|-3/5----5/3-1----------1-1--3--|
G|---------------2p4h2-0-0-0--0--|
D|-----------------------2-2--0--|
A|-----------------------3-3--2--|
E|----------------------------3--|

[Verse 1]
G                             G/F
Deixa eu te falar do meu amor
Em
Nesse momento
C               Am
Vem sentar mais perto
        G   C G C
Aqui de mim
G
Quantas vezes a gente
               F/G    Em
Nem precisou falar nada
Pra gente se entender
C
pouco a pouco todo o tempo
                            Am
Que nós temos é tão pouco tempo
                  G
Pra gente se namorar

[Bridge]
e|-------------------------------|
B|-------------------------------|
G|-------------------------------|
D|-------------------------------|
A|--0-0--2-2--3------------------|
E|--3-3--0-0--0------------------|

[Chorus]
        Em
Se namorar (se namorar)
        Am
Se namorar (se namorar)
        C
Se namorar (se namorar)
        G
Se namorar (se namorar)(2x)

[Verse 1]
G
Deixa eu te falar do meu amor
Em
Nesse momento
C                   Am
Vem sentar mais perto
          G C G C
Aqui de mim

[Verse 2]
G
Minha pele arrepia
                                 Em
Quando minha retina encontra a sua
Não posso negar
C
Pouco a pouco todo o tempo
                            Am
Que nós temos é tão pouco tempo
                    G
Pra gente se namorar

[Chorus]
       Em
Se namorar (se namorar)
       Am
Se namorar (se namorar)
       C
Se namorar (se namorar)
       G
Se namorar (se namorar)(2x)

[Verse 3]
Em
Já contei todos os nossos beijos
                         Am
somam mais de mil e trezentos

Só nessa semana
Em
Sei exatamente todo dia
                    G
Cada hora, quantos meses

A gente se ama
C
Pouco a pouco todo o tempo
                            Am
Que nós temos é tão pouco tempo
                    G
Pra gente se namorar

[Chorus]
       Em
Se namorar (se namorar)
       Am
Se namorar (se namorar)
       C
Se namorar (se namorar)
       G
Se namorar (se namorar)(2x)

[Outro]
G
Deixa eu te falar do meu amor
Em
Nesse momento
C               Am
Vem sentar mais perto aqui

E|------3------------------|
B|-3/5----5/3-1------------|
G|---------------2p4h2--0--|
D|-------------------------|
A|-------------------------|
E|-------------------------|


************************************

| /  Slide up
| h  Hammer-on
| p  Pull-off

************************************

            
            
Suggest correction
Creating personal tab
Creating personal tab
You can edit any tab online and save it as your Personal.

You can edit, replace or remove any tab part or add personal notes – all changes will be seen only by you.

Personal tabs can be accessed anytime from any device, even offline.
Learn more »
Give kudos to tab author, rate the tab!
1 2 3 4 5
comments
print report bad tab
guest
You may want to rate the tab now too:
select rating
Wanna post a correction for this tab? Suggest correction