Oops, an error
Loading. Please wait.

All You Ever Hear tab

version 2
version 2

Whole song

Interactive

110 views 1 this week
no commentswrite comment
1 2 3 4 5
3 more votes to show rating
add to favorites
×
Save as Personal and add changes to this tab that will be seen only by you. Learn more ›
×
You can save this tab as Personal to edit and correct it or add notes. All changes will be seen only by you. Learn more »
launch autoscroll
font size
0
reset
how to read this tab
guitar tuner
edit
Autoscroll
slow
fast
+/-
esc
set tempo
stop
Exported Off GP
Title: All You Ever Hear
Artist: Ivoryline
Album: There Came A Lion
Words: Ivoryline
Music: Ivoryline
Copyright: Ivoryline
Tempo = 150
Dusty (Lead)

Legend
L - tied note
x - dead note
h - hammer on/pull off
b - bend
s - slide
~ - vibrato
g - ghost note
> - accentuated note
t - trill
M - palm mute
. - staccato
P - popping (bass)
S - slapping (bass)
+ - tapping
W - wide vibrato
< - fade in
w - whammy bar
= - tremolo picking
v - brush up
^ - brush down
V - pick stroke up
n - pick stroke down


D#|----------------------------|----------------------------|
A#|----------------------------|----------------------------|
F#|-----------------------6M---|--6M-6s-7M-7M-7M-7M-9M-9M---|
C#|--7--7--7--7--9M-9M-9M------|----------------------------|
G#|--7--7--7--7----------------|----------------------------|
C#|--7--7--7--7----------------|----------------------------|


----------------------------|----------------------------|
-----------8M-8M-8M-8M-7M---|--7M-7M-7M-10M10M10M10M10M--|
--9M-9M-9M------------------|----------------------------|
----------------------------|----------------------------|
----------------------------|----------------------------|
----------------------------|----------------------------|


----------------------------|----------------------------|
----------------------------|-----------------------8M---|
-----------6M-6M-6s-7M-7M---|--7M-7M-9M-9M-9M-9M-9M------|
--9M-9M-9M------------------|----------------------------|
----------------------------|----------------------------|
----------------------------|----------------------------|


----------------------------|----------------------------|
--8M-8M-8M-7M-7M-7M-7M-10M--|--10M10M10M10M10M10M10M10M--|
----------------------------|----------------------------|
----------------------------|----------------------------|
----------------------------|----------------------------|
----------------------------|----------------------------|


----------------------------|
----------------------------|
-----------------x--x--x----|
--9--9--7s-9--9--x--x--x----|
--9--9--7s-9--9--x--x--x----|
--9--9--7s-9--9-------------|


----------------------------------------------------|
----------------------------------------------------|
--x-----x-----x-------------------------------------|
--x-----x-----x-----9-----9-----x--x--7s----9-------|
--x-----x-----x-----9-----9-----x--x--7s----9-------|
--------------------9-----9-----x--x--7s----9-------|


----------------------------|----------------------------|
----------------------------|----------------------------|
-----x--x--x--x-------------|-----------------x--x--x----|
--9--x--x--x--x--5--5--5----|--9--9--7--9--9--x--x--x----|
--9--x--x--x--x--5--5--5----|--9--9--7--9--9--x--x--x----|
--9--------------5--5--5----|--9--9--7--9--9-------------|


----------------------------------------------------|
----------------------------------------------------|
--x-----x-----x-------------------------------------|
--x-----x-----x-----9-----9-----------7-----9-------|
--x-----x-----x-----9-----9-----x--x--7-----9-------|
--------------------9-----9-----x--x--7-----9-------|


----------------------------|----------------------------|
----------------------------|--7--8--7-----------0-------|
-----x--x--x--x--7--7--7----|-----------7--6--7--7-------|
--9--x--x--x--x--7--7--7----|----------------------------|
--9--x--x--x--x--5--5--5----|----------------------------|
--9-------------------------|----------------------------|


-----9M----9M----9M----9M---|----------------------------|
--0-----0-----0-----0-------|--7--8--7-----------0-------|
----------------------------|-----------7--6--7--7-------|
----------------------------|----------------------------|
----------------------------|----------------------------|
----------------------------|----------------------------|


-----5-----5-----5-----5----|-----9-----9-----9-----9----|
--0-----0-----0-----0-------|--0-----0-----0-----0-------|
----------------------------|----------------------------|
----------------------------|----------------------------|
----------------------------|----------------------------|
----------------------------|----------------------------|


----------------------------|----------------------------|
----------------------------|----------------------------|
--4--4--4--4--4--6--6--6----|--6--6--6--6s-7--7--7--7----|
--7--7--7--7--7--7--7--7----|--7--7--7--7--7--7--7--7----|
--5--5--5--5--5--4--4--4----|--4--4--4--4s-5--5--5--5----|
----------------------------|----------------------------|


----------------------------|----------------------------|
----------------------------|----------------------------|
--7--11-11-9--9--7--7--6----|--6--4--4--4--4--4--6--6----|
--7--x--x--x--x--x--x--x----|--x--7--7--7--7--7--7--7----|
--5--9--9--7--7--5--5--4----|--4--5--5--5--5--5--4--4----|
----------------------------|----------------------------|


----------------------------|----------------------------------|
----------------------------|----------------------------------|
--6--6--6--6--6s-7--7--7----|--7--7--10-10-8--8--7--7----------|
--7--7--7--7--7--7--7--7----|--7--7--------------------9--9----|
--4--4--4--4--4s-5--5--5----|--5--5----------------------------|
----------------------------|----------------------------------|


----------------------------|----------------------------|
-----10----7-----------7----|--8--7-----------10---------|
--7-----7-----9--7--9-------|--------9--7--7-----7--7----|
----------------------------|----------------------------|
----------------------------|----------------------------|
----------------------------|----------------------------|


----------------------------|----------------------------|
--10-10-8--8--7--7----------|-----10----7-----------7----|
--------------------9--9----|--7-----7-----9--7--9-------|
----------------------------|----------------------------|
----------------------------|----------------------------|
----------------------------|----------------------------|


----------------------------|----------------------------|
--8--7-----------10---------|--10-10-8--8--7--7----------|
--------9--7--7-----7--7----|--------------------9--9----|
----------------------------|----------------------------|
----------------------------|----------------------------|
----------------------------|----------------------------|


----------------------------|----------------------------|
----------------------------|----------------------------|
--4--4--4--4s-9--9--9--9s---|--6--6--6--6s-11-11-11-11---|
--7--7--7--7--x--x--x--x----|--7--7--7--7--x--x--x--x----|
--5--5--5--5s-7--7--7--7s---|--4--4--4--4s-9--9--9--9----|
----------------------------|----------------------------|


----------------------------------------|----------------------------|
----------------------------------------|----------------------------|
--11-11-11-11-11-11-9--9--7--7--6--6----|--4--4--4--4s-9--9--9--9s---|
--x--x--x--x--x--x--x--x--x--x--x--x----|--7--7--7--7--x--x--x--x----|
--9--9--9--9--9--9--7--7--5--5--4--4----|--5--5--5--5s-7--7--7--7s---|
----------------------------------------|----------------------------|


----------------------------|----------------------------------------|
----------------------------|----------------------------------------|
--6--6--6--6s-4--4--4--4----|--4--4--4--4--4--4--4--4--4--4--4--4----|
--7--7--7--7--7--7--7--7----|--7--7--7--7--7--7--7--7--7--7--7--7----|
--4--4--4--4s-5--5--5--5----|--5--5--5--5--5--5--5--5--5--5--5--5----|
----------------------------|----------------------------------------|


----------------------------|
----------------------------|
-----------------x--x--x----|
--9--9--7s-9--9--x--x--x----|
--9--9--7s-9--9--x--x--x----|
--9--9--7s-9--9-------------|


----------------------------------------------------|
----------------------------------------------------|
--x-----x-----x-------------------------------------|
--x-----x-----x-----9-----9-----x--x--7s----9-------|
--x-----x-----x-----9-----9-----x--x--7s----9-------|
--------------------9-----9-----x--x--7s----9-------|


----------------------------|----------------------------|
----------------------------|----------------------------|
-----x--x--x--x--6L-6L-6----|-----------------x--x--x----|
--9--x--x--x--x-------------|--9--9--7--9--9--x--x--x----|
--9--x--x--x--x-------------|--9--9--7--9--9--x--x--x----|
--9-------------------------|--9--9--7--9--9-------------|


----------------------------------------------------|
----------------------------------------------------|
--x-----x-----x-----4M-4M-4M-4M-4M-4M-4M-4M-4M-4M---|
--x-----x-----x-------------------------------------|
--x-----x-----x-------------------------------------|
----------------------------------------------------|


----------------------------------------------------|
----------------------------------------------------|
--4M-4M-4M-4M-4M-7-----7-----7L----7L-7L-7L-7L-7----|
-----------------7-----7-----7L----7L-7L-7L-7L-7----|
-----------------5-----5-----5L----5L-5L-5L-5L-5----|
----------------------------------------------------|


----------------------------|--2M----2M----2M----2M------|
--7--8--7-------------------|-----0-----0-----0-----0----|
-----------7--6--7--7-------|----------------------------|
----------------------------|----------------------------|
----------------------------|----------------------------|
----------------------------|----------------------------|


--5M----5M----5M----5M------|--9M----9M----9M----9M------|
-----0-----0-----0-----0----|-----0-----0-----0-----0----|
----------------------------|----------------------------|
----------------------------|----------------------------|
----------------------------|----------------------------|
----------------------------|----------------------------|


----------------------------|--2M----2M----2M----2M------|
--7--8--7-------------------|-----0-----0-----0-----0----|
-----------7--6--7--7-------|----------------------------|
----------------------------|----------------------------|
----------------------------|----------------------------|
----------------------------|----------------------------|


--5M----5M----5M----5M------|--9M----9M----9M----9M------|
-----0-----0-----0-----0----|-----0-----0-----0-----0----|
----------------------------|----------------------------|
----------------------------|----------------------------|
----------------------------|----------------------------|
----------------------------|----------------------------|


----------------------------|----------------------------|
----------------------------|----------------------------|
--4--4--4--4--4--6--6--6----|--6--6--6--6s-7--7--7--7----|
--7--7--7--7--7--7--7--7----|--7--7--7--7--7--7--7--7----|
--5--5--5--5--5--4--4--4----|--4--4--4--4s-5--5--5--5----|
----------------------------|----------------------------|


----------------------------|----------------------------|
----------------------------|----------------------------|
--7--11-11-9--9--7--7--6----|--6--4--4--4--4--4--6--6----|
--7--x--x--x--x--x--x--x----|--x--7--7--7--7--7--7--7----|
--5--9--9--7--7--5--5--4----|--4--5--5--5--5--5--4--4----|
----------------------------|----------------------------|


----------------------------|----------------------------|
----------------------------|----------------------------|
----------------------------|----------------------------|
--9M-9M-9M-9M-9M-9M-9M-9M---|--4--4--4--4--4--4--4--4----|
--9M-9M-9M-9M-9M-9M-9M-9M---|----------------------------|
--9M-9M-9M-9M-9M-9M-9M-9M---|----------------------------|


----------------------------|----------------------------|
-----10----7-----------7----|--8--7-----------10---------|
--7-----7-----9--7--9-------|--------9--7--7-----7--7----|
----------------------------|----------------------------|
----------------------------|----------------------------|
----------------------------|----------------------------|


----------------------------|----------------------------|
--10-10-8--8--7--7----------|-----10----7-----------7----|
--------------------9--9----|--7-----7-----9--7--9-------|
----------------------------|----------------------------|
----------------------------|----------------------------|
----------------------------|----------------------------|


----------------------------|----------------------------|
--8--7-----------10---------|--10-10-8--8--7--7----------|
--------9--7--7-----7--7----|--------------------9--9----|
----------------------------|----------------------------|
----------------------------|----------------------------|
----------------------------|----------------------------|


----------------------------|----------------------------|
----------------------------|----------------------------|
--4--4--4--4s-9--9--9--9s---|--6--6--6--6----------------|
--7--7--7--7--x--x--x--x----|--7--7--7--7s-9M-9--9--9----|
--5--5--5--5s-7--7--7--7s---|--4--4--4--4s-9M-9--9--9----|
----------------------------|--------------9M-9--9--9----|


----------------------------|----------------------------|
----------------------------|----------------------------|
----------------------------|--4--4--4--4s-9--9--9--9s---|
--9M-9--9--9--9M-9--9--9----|--7--7--7--7--x--x--x--x----|
--9M-9--9--9--9M-9--9--9----|--5--5--5--5s-7--7--7--7s---|
--9M-9--9--9--9M-9--9--9----|----------------------------|


----------------------------|-------|----------------------------|
----------------------------|--10---|----------------------------|
--6--6--6--6----------------|--9----|--9--9--9--9--9--11-11-11---|
--7--7--7--7s-11M12L12L12M--|--9----|--x--x--x--x--x--x--x--x----|
--4--4--4--4s-11M12L12L12M--|--9----|--7--7--7--7--7--9--9--9----|
--------------11M12L12L12M--|--9----|----------------------------|


----------------------------|--------------5-------------|
----------------------------|--------------x-------------|
--11-11-11-4--4--4--4--4----|--6--6--6--6--7-------------|
--x--x--x--7--7--7--7--7----|--7--7--7--7--7-------------|
--9--9--9--5--5--5--5--5----|--4--4--4--4--5-------------|
----------------------------|----------------------------|


--------------5-------------|----------------------------|
--------------x-------------|--10------------------------|
--6--6--6--6--7-------------|--12s---------6--6--6--6----|
--7--7--7--7--7-------------|--12s---------7--7--7--7----|
--4--4--4--4--5-------------|--10s---------4--4--4--4----|
----------------------------|----------------------------|


----------------------------|----------------------------||
----------------------------|----------------------------||
--4--4--4--4--4--4--4--4----|--6--6--6--6--6--6--6--6----||
--7--7--7--7--7--7--7--7----|--7--7--7--7--7--7--7--7----||
--5--5--5--5--5--5--5--5----|--4--4--4--4--4--4--4--4----||
----------------------------|----------------------------||


-------5-----5-----5------------------||----------------------------|
-0--0-----0-----0-----0--5--5--5--0---||----------------------------|
o------------------------------------o||--4--4--4--4--4--4--4--4----|
o------------------------------------o||--7--7--7--7--7--7--7--7----|
--------------------------------------||--5--5--5--5--5--5--5--5----|
--------------------------------------||----------------------------|


----------------------------||-------5-----5-----5------------------||
----------------------------||-0--0-----0-----0-----0--5--5--5--0---||
--6--6--6--6--6--6--6--6----||o------------------------------------o||
--7--7--7--7--7--7--7--7----||o------------------------------------o||
--4--4--4--4--4--4--4--4----||--------------------------------------||
----------------------------||--------------------------------------||


----------------------------|----------------------------|
-----10----10---------------|--7--8--7-----------7-------|
-----------------9--9--9----|-----------9--7-------------|
--9-----9-----9-------------|-----------------9-----9----|
----------------------------|----------------------------|
----------------------------|----------------------------|


--------10-10-9--9--7--7----------|----------------------------|
--10----------------------10-10---|-----10----7-----------7----|
----------------------------------|--7-----7-----9--7--9-------|
-----9----------------------------|----------------------------|
----------------------------------|----------------------------|
----------------------------------|----------------------------|


----------------------------|----------------------------|
--8--7-----------10---------|--10-10-8--8--7--7----------|
--------9--7--7-----7--7----|--------------------9--9----|
----------------------------|----------------------------|
----------------------------|----------------------------|
----------------------------|----------------------------|


----------------------------|----------------------------|
-----10----7-----------7----|--8--7-----------10---------|
--7-----7-----9--7--9-------|--------9--7--7-----7--7----|
----------------------------|----------------------------|
----------------------------|----------------------------|
----------------------------|----------------------------|


----------------------------|----------------------------|
--10-10-8--8--7--7----------|----------------------------|
--------------------9--9----|--4--4--4--4s-9--9--9--9s---|
----------------------------|--7--7--7--7--x--x--x--x----|
----------------------------|--5--5--5--5s-7--7--7--7s---|
----------------------------|----------------------------|


----------------------------|----------------------------------------|
----------------------------|----------------------------------------|
--6--6--6--6s-11-11-11-11---|--11-11-11-11-11-11-9--9--7--7--6--6----|
--7--7--7--7--x--x--x--x----|--x--x--x--x--x--x--x--x--x--x--x--x----|
--4--4--4--4s-9--9--9--9----|--9--9--9--9--9--9--7--7--5--5--4--4----|
----------------------------|----------------------------------------|


----------------------------|----------------------------|
----------------------------|----------------------------|
--4--4--4--4s-9--9--9--9s---|--6--6--6--6s-4--4--4--4----|
--7--7--7--7--x--x--x--x----|--7--7--7--7--7--7--7--7----|
--5--5--5--5s-7--7--7--7s---|--4--4--4--4s-5--5--5--5----|
----------------------------|----------------------------|


----------------------------------------|
----------------------------------------|
--4--4--4--4--4--4--4--4--4--4--4--4----|
--7--7--7--7--7--7--7--7--7--7--7--7----|
--5--5--5--5--5--5--5--5--5--5--5--5----|
----------------------------------------|


----------------------------------------------------|
----------------------------------------------------|
--7M-7M-7M-7M-7M-7M-7M-7M-9M-9M-9M-9M-6M-6M-6M-6M---|
--xM-xM-xM-xM-xM-xM-xM-xM-xM-xM-xM-xM-xM-xM-xM-xM---|
--5M-5M-5M-5M-5M-5M-5M-5M-7M-7M-7M-7M-4M-4M-4M-4M---|
----------------------------------------------------|


----------------------------------------------------|
----------------------------------------------------|
--4M-4M-4M-4M-4M-4M-4M-4M-11M11M11M11M11M11M11M11M--|
--xM-xM-xM-xM-xM-xM-xM-xM-xM-xM-xM-xM-xM-xM-xM-xM---|
--2M-2M-2M-2M-2M-2M-2M-2M-9M-9M-9M-9M-9M-9M-9M-9M---|
----------------------------------------------------|


----------------------------------------------------|
----------------------------------------------------|
--7M-7M-7M-7M-7M-7M-7M-7M-9M-9M-9M-9M-6M-6M-6M-6M---|
--xM-xM-xM-xM-xM-xM-xM-xM-xM-xM-xM-xM-xM-xM-xM-xM---|
--5M-5M-5M-5M-5M-5M-5M-5M-7M-7M-7M-7M-4M-4M-4M-4M---|
----------------------------------------------------|


----------------------------------------------------|
----------------------------------------------------|
--4M-4M-4M-4M-4M-4M-4M-4M-11M11M11M11M11M11M11M11M--|
--xM-xM-xM-xM-xM-xM-xM-xM-xM-xM-xM-xM-xM-xM-xM-xM---|
--2M-2M-2M-2M-2M-2M-2M-2M-9M-9M-9M-9M-9M-9M-9M-9M---|
----------------------------------------------------|


----------------------------|----------------------------|
-----------------------10M--|----------------------------|
--------11M---12M-----------|-----12M---11M---12M---11M--|
--9M-9M----9M----9M-9M------|--9M----9M----9M----9M------|
----------------------------|----------------------------|
----------------------------|----------------------------|


----------------------------|----------------------------|
----------------------------|----------------------------|
--------11M---12M------11M--|-----9M----9M----9M---------|
--9M-9M----9M----9M-9M------|--9M----9M----9M----9M-9M---|
----------------------------|----------------------------|
----------------------------|----------------------------|


----------------------------|----------------------------|
-----------------------10M--|----------------------------|
--------11M---12M-----------|-----12M---11M---12M---11M--|
--9M-9M----9M----9M-9M------|--9M----9M----9M----9M------|
----------------------------|----------------------------|
----------------------------|----------------------------|


----------------------------|----------------------------|
----------------------------|----------------------------|
--------11M---12M------11M--|-----9M----9M----9M---------|
--9M-9M----9M----9M-9M------|--9M----9M----9M----9M-9M---|
----------------------------|----------------------------|
----------------------------|----------------------------|


----------------------------------------------------|
----------------------------------------------------|
--7M-7M-7M-------7M-7M-7M-9M-9M-9M-9M-6M-6M-6M-6M---|
--xM-xM-xM-xM-xM-xM-xM-xM-xM-xM-xM-xM-xM-xM-xM-xM---|
--5M-5M-5M-5M-5M-5M-5M-5M-7M-7M-7M-7M-4M-4M-4M-4M---|
----------------------------------------------------|


----------------------------------------------------|
----------------------------------------------------|
--4M----------4M-------4M-11M11M11M11M11M11M11M11M--|
--xM-xM-xM-xM-xM-xM-xM-xM-xM-xM-xM-xM-xM-xM-xM-xM---|
--2M-2M-2M-2M-2M-2M-2M-2M-9M-9M-9M-9M-9M-9M-9M-9M---|
----------------------------------------------------|


----------------------------------------------------|
----------------------------------------------------|
--7M-7M-7M-------7M-7M-7M-9M-9M-9M-9M-6M-6M-6M-6M---|
--xM-xM-xM-xM-xM-xM-xM-xM-xM-xM-xM-xM-xM-xM-xM-xM---|
--5M-5M-5M-5M-5M-5M-5M-5M-7M-7M-7M-7M-4M-4M-4M-4M---|
----------------------------------------------------|


----------------------------------------------------|
----------------------------------------------------|
--4M----------4M-------4M-11M11M11M11M11M11M11M11M--|
--xM-xM-xM-xM-xM-xM-xM-xM-xM-xM-xM-xM-xM-xM-xM-xM---|
--2M-2M-2M-2M-2M-2M-2M-2M-9M-9M-9M-9M-9M-9M-9M-9M---|
----------------------------------------------------|


----------------------------------------------------|
----------------------------------------------------|
--7M-7M-7M-------7M-7M-7M-9M-9M-9M-9M-6M-6M-6M-6M---|
--xM-xM-xM-xM-xM-xM-xM-xM-xM-xM-xM-xM-xM-xM-xM-xM---|
--5M-5M-5M-5M-5M-5M-5M-5M-7M-7M-7M-7M-4M-4M-4M-4M---|
----------------------------------------------------|


----------------------------------------------------|
----------------------------------------------------|
--4M----------4M-------4M-11M11M11M11M11M11M11M11M--|
--xM-xM-xM-xM-xM-xM-xM-xM-xM-xM-xM-xM-xM-xM-xM-xM---|
--2M-2M-2M-2M-2M-2M-2M-2M-9M-9M-9M-9M-9M-9M-9M-9M---|
----------------------------------------------------|


----------------------------------------------------|
----------------------------------------------------|
--7M-7M-7M-------7M-7M-7M-9M-9M-9M-9M-6M-6M-6M-6M---|
--xM-xM-xM-xM-xM-xM-xM-xM-xM-xM-xM-xM-xM-xM-xM-xM---|
--5M-5M-5M-5M-5M-5M-5M-5M-7M-7M-7M-7M-4M-4M-4M-4M---|
----------------------------------------------------|


----------------------------------------------------|-------||
----------------------------------------------------|-------||
--4M----------4M-------4M-11M11M11M11M11M11M11M11M--|--9----||
--xM-xM-xM-xM-xM-xM-xM-xM-xM-xM-xM-xM-xM-xM-xM-xM---|--x----||
--2M-2M-2M-2M-2M-2M-2M-2M-9M-9M-9M-9M-9M-9M-9M-9M---|--7----||
----------------------------------------------------|-------||
__________________________________________________________________
________________________________________________________________
______________________________________________________________
____________________________________________________________
Title: All You Ever Hear
Artist: Ivoryline
Album: There Came A Lion
Words: Ivoryline
Music: Ivoryline
Copyright: Ivoryline
Tempo = 150
Brandon (Rhythm)

Legend
L - tied note
x - dead note
h - hammer on/pull off
b - bend
s - slide
~ - vibrato
g - ghost note
> - accentuated note
t - trill
M - palm mute
. - staccato
P - popping (bass)
S - slapping (bass)
+ - tapping
W - wide vibrato
< - fade in
w - whammy bar
= - tremolo picking
v - brush up
^ - brush down
V - pick stroke up
n - pick stroke down


D#|----------------------------|----------------------------|
A#|----------------------------|----------------------------|
F#|----------------------------|--------------------7--7----|
C#|--7--7--7--7--9--9--9--0----|--0--0--0--5--5--5--7--7----|
G#|--7--7--7--7--9--9--9--0----|--0--0--0--5--5--5--5--5----|
C#|--7--7--7--7--9--9--9--0----|--0--0--0--5--5--5----------|


----------------------------|----------------------------|
----------------------------|----------------------------|
--7--7--7-------------------|----------------------------|
--7--7--7--9--9--9--9--5----|--5--5--5--7--7--7--7--7----|
--5--5--5--9--9--9--9--5----|--5--5--5--7--7--7--7--7----|
-----------9--9--9--9--5----|--5--5--5--7--7--7--7--7----|


----------------------------|----------------------------|
----------------------------|----------------------------|
----------------------------|--------7--7--7--7--7-------|
--9--9--9--0--0--0--0--5----|--5--5--7--7--7--7--7--9----|
--9--9--9--0--0--0--0--5----|--5--5--5--5--5--5--5--9----|
--9--9--9--0--0--0--0--5----|--5--5-----------------9----|


----------------------------|----------------------------|
----------------------------|----------------------------|
----------------------------|----------------------------|
--9--9--9--5--5--5--5--7----|--7--7--7--7--7--7--7--7----|
--9--9--9--5--5--5--5--7----|--7--7--7--7--7--7--7--7----|
--9--9--9--5--5--5--5--7----|--7--7--7--7--7--7--7--7----|


----------------------------|
----------------------------|
-----------------x--x--x----|
--9--9--7s-9--9--x--x--x----|
--9--9--7s-9--9--x--x--x----|
--9--9--7s-9--9-------------|


----------------------------------------------------|
----------------------------------------------------|
--x-----x-----x-------------------------------------|
--x-----x-----x-----9-----9-----x--x--7s----9-------|
--x-----x-----x-----9-----9-----x--x--7s----9-------|
--------------------9-----9-----x--x--7s----9-------|


----------------------------|----------------------------|
----------------------------|----------------------------|
-----x--x--x--x-------------|-----------------x--x--x----|
--9--x--x--x--x--5--5--5----|--9--9--7--9--9--x--x--x----|
--9--x--x--x--x--5--5--5----|--9--9--7--9--9--x--x--x----|
--9--------------5--5--5----|--9--9--7--9--9-------------|


----------------------------------------------------|
----------------------------------------------------|
--x-----x-----x-------------------------------------|
--x-----x-----x-----9-----9-----------7-----9-------|
--x-----x-----x-----9-----9-----x--x--7-----9-------|
--------------------9-----9-----x--x--7-----9-------|


----------------------------|----------------------------|
----------------------------|----------------------------|
-----x--x--x--x--7--7--7----|-----------------x--x--x----|
--9--x--x--x--x--7--7--7----|--9--9--7s-9--9--x--x--x----|
--9--x--x--x--x--5--5--5----|--9--9--7s-9--9--x--x--x----|
--9-------------------------|--9--9--7s-9--9-------------|


----------------------------------------------------|
----------------------------------------------------|
--x-----x-----x-------------------------------------|
--x-----x-----x-----9-----9-----x--x--7s----9-------|
--x-----x-----x-----9-----9-----x--x--7s----9-------|
--------------------9-----9-----x--x--7s----9-------|


----------------------------|----------------------------|
----------------------------|----------------------------|
-----x--x--x--x-------------|-----------------x--x--x----|
--9--x--x--x--x--5--5--5----|--9--9--7--9--9--x--x--x----|
--9--x--x--x--x--5--5--5----|--9--9--7--9--9--x--x--x----|
--9--------------5--5--5----|--9--9--7--9--9-------------|


----------------------------------------------------|
----------------------------------------------------|
--x-----x-----x-------------------------------------|
--x-----x-----x-----9-----9-----------7-----9-------|
--x-----x-----x-----9-----9-----x--x--7-----9-------|
--------------------9-----9-----x--x--7-----9-------|


----------------------------|----------------------------|
----------------------------|----------------------------|
--4--4--4--4--4--6--6--6----|--6--6--6--6s-7--7--7--7----|
--7--7--7--7--7--7--7--7----|--7--7--7--7--7--7--7--7----|
--5--5--5--5--5--4--4--4----|--4--4--4--4s-5--5--5--5----|
----------------------------|----------------------------|


----------------------------|----------------------------|
----------------------------|----------------------------|
--7--11-11-9--9--7--7--6----|--6--4--4--4--4--4--6--6----|
--7--x--x--x--x--x--x--x----|--x--7--7--7--7--7--7--7----|
--5--9--9--7--7--5--5--4----|--4--5--5--5--5--5--4--4----|
----------------------------|----------------------------|


----------------------------|----------------------------------|
----------------------------|----------------------------------|
--6--6--6--6--6s-7--7--7----|--7--7----------------------------|
--7--7--7--7--7--7--7--7----|--7--7----------------------------|
--4--4--4--4--4s-5--5--5----|--5--5----------------------------|
----------------------------|----------------------------------|


----------------------------|----------------------------|
----------------------------|----------------------------|
--4--4--4--4--4--6--6--6----|--6--6--6--6s-7--7--7--7----|
--7--7--7--7--7--7--7--7----|--7--7--7--7--7--7--7--7----|
--5--5--5--5--5--4--4--4----|--4--4--4--4s-5--5--5--5----|
----------------------------|----------------------------|


----------------------------|----------------------------|
----------------------------|----------------------------|
--7--11-9--9--7--7--6--6----|--4--4--4--4--4--6--6--6----|
--7--x--x--x--x--x--x--x----|--7--7--7--7--7--7--7--7----|
--5--9--7--7--5--5--4--4----|--5--5--5--5--5--4--4--4----|
----------------------------|----------------------------|


----------------------------|----------------------------|
----------------------------|----------------------------|
--6--6--6--6s-7--7--7--7----|--7--7--7--7--7--7--7--7----|
--7--7--7--7--7--7--7--7----|--7--7--7--7--7--7--7--7----|
--4--4--4--4s-5--5--5--5----|--5--5--5--5--5--5--5--5----|
----------------------------|----------------------------|


----------------------------|----------------------------|
----------------------------|----------------------------|
--4--4--4--4s-9--9--9--9s---|--6--6--6--6s-11-11-11-11---|
--7--7--7--7--x--x--x--x----|--7--7--7--7--x--x--x--x----|
--5--5--5--5s-7--7--7--7s---|--4--4--4--4s-9--9--9--9----|
----------------------------|----------------------------|


----------------------------------------|----------------------------|
----------------------------------------|----------------------------|
--11-11-11-11-11-11-9--9--7--7--6--6----|--4--4--4--4s-9--9--9--9s---|
--x--x--x--x--x--x--x--x--x--x--x--x----|--7--7--7--7--x--x--x--x----|
--9--9--9--9--9--9--7--7--5--5--4--4----|--5--5--5--5s-7--7--7--7s---|
----------------------------------------|----------------------------|


----------------------------|----------------------------------------|
----------------------------|----------------------------------------|
--6--6--6--6s-4--4--4--4----|--4--4--4--4--4--4--4--4--4--4--4--4----|
--7--7--7--7--7--7--7--7----|--7--7--7--7--7--7--7--7--7--7--7--7----|
--4--4--4--4s-5--5--5--5----|--5--5--5--5--5--5--5--5--5--5--5--5----|
----------------------------|----------------------------------------|


----------------------------|
----------------------------|
-----------------x--x--x----|
--9--9--7s-9--9--x--x--x----|
--9--9--7s-9--9--x--x--x----|
--9--9--7s-9--9-------------|


----------------------------------------------------|
----------------------------------------------------|
--x-----x-----x-------------------------------------|
--x-----x-----x-----9-----9-----x--x--7s----9-------|
--x-----x-----x-----9-----9-----x--x--7s----9-------|
--------------------9-----9-----x--x--7s----9-------|


----------------------------|----------------------------|
----------------------------|----------------------------|
-----x--x--x--x--6L-6L-6----|-----------------x--x--x----|
--9--x--x--x--x-------------|--9--9--7s-9--9--x--x--x----|
--9--x--x--x--x-------------|--9--9--7s-9--9--x--x--x----|
--9-------------------------|--9--9--7s-9--9-------------|


----------------------------------------------------|
----------------------------------------------------|
--x-----x-----x-------------------------------------|
--x-----x-----x-----9-----9-----x--x--7s----9-------|
--x-----x-----x-----9-----9-----x--x--7s----9-------|
--------------------9-----9-----x--x--7s----9-------|


----------------------------|----------------------------|
----------------------------|----------------------------|
-----x--x--x--x--7--7--7----|-----------------x--x--x----|
--9--x--x--x--x--7--7--7----|--9--9--7s-9--9--x--x--x----|
--9--x--x--x--x--5--5--5----|--9--9--7s-9--9--x--x--x----|
--9-------------------------|--9--9--7s-9--9-------------|


----------------------------------------------------|
----------------------------------------------------|
--x-----x-----x-------------------------------------|
--x-----x-----x-----9-----9-----x--x--7s----9-------|
--x-----x-----x-----9-----9-----x--x--7s----9-------|
--------------------9-----9-----x--x--7s----9-------|


----------------------------|----------------------------|
----------------------------|----------------------------|
-----x--x--x--x-------------|-----------------x--x--x----|
--9--x--x--x--x--5--5--5----|--9--9--7s-9--9--x--x--x----|
--9--x--x--x--x--5--5--5----|--9--9--7s-9--9--x--x--x----|
--9--------------5--5--5----|--9--9--7s-9--9-------------|


----------------------------------------------------|
----------------------------------------------------|
--x-----x-----x-------------------------------------|
--x-----x-----x-----9-----9-----x--x--7s----9-------|
--x-----x-----x-----9-----9-----x--x--7s----9-------|
--------------------9-----9-----x--x--7s----9-------|


----------------------------|----------------------------|
----------------------------|----------------------------|
-----x--x--x--x--7--7--7----|--7--7--7--7--7--7--7--7----|
--9--x--x--x--x--7--7--7----|--7--7--7--7--7--7--7--7----|
--9--x--x--x--x--5--5--5----|--5--5--5--5--5--5--5--5----|
--9-------------------------|----------------------------|


----------------------------|----------------------------|
----------------------------|----------------------------|
----------------------------|--4--4--4--4--4--6--6--6----|
--5--5--5--5--5--5--5--5----|--7--7--7--7--7--7--7--7----|
--5--5--5--5--5--5--5--5----|--5--5--5--5--5--4--4--4----|
--5--5--5--5--5--5--5--5----|----------------------------|


----------------------------|----------------------------|
----------------------------|----------------------------|
--6--6--6--6s-7--7--7--7----|--7--11-11-9--9--7--7--6----|
--7--7--7--7--7--7--7--7----|--7--x--x--x--x--x--x--x----|
--4--4--4--4s-5--5--5--5----|--5--9--9--7--7--5--5--4----|
----------------------------|----------------------------|


----------------------------|----------------------------|
----------------------------|----------------------------|
--6--4--4--4--4--4--6--6----|----------------------------|
--x--7--7--7--7--7--7--7----|--9M-9M-9M-9M-9M-9M-9M-9M---|
--4--5--5--5--5--5--4--4----|--9M-9M-9M-9M-9M-9M-9M-9M---|
----------------------------|--9M-9M-9M-9M-9M-9M-9M-9M---|


----------------------------|----------------------------|
----------------------------|----------------------------|
----------------------------|--4--4--4--4--4--6--6--6----|
--9M-9M-9M-9M-9--9--9--9----|--7--7--7--7--7--7--7--7----|
--9M-9M-9M-9M-9--9--9--9----|--5--5--5--5--5--4--4--4----|
--9M-9M-9M-9M-9--9--9--9----|----------------------------|


----------------------------|----------------------------|
----------------------------|----------------------------|
--6--6--6--6s-7--7--7--7----|--7--11-9--9--7--7--6--6----|
--7--7--7--7--7--7--7--7----|--7--x--x--x--x--x--x--x----|
--4--4--4--4s-5--5--5--5----|--5--9--7--7--5--5--4--4----|
----------------------------|----------------------------|


----------------------------|----------------------------|
----------------------------|----------------------------|
--4--4--4--4--4--6--6--6----|--6--6--6--6s-7--7--7--7----|
--7--7--7--7--7--7--7--7----|--7--7--7--7--7--7--7--7----|
--5--5--5--5--5--4--4--4----|--4--4--4--4s-5--5--5--5----|
----------------------------|----------------------------|


----------------------------|----------------------------|
----------------------------|----------------------------|
--7--7--7--7--7--7--7--7----|--4--4--4--4s-9--9--9--9s---|
--7--7--7--7--7--7--7--7----|--7--7--7--7--x--x--x--x----|
--5--5--5--5--5--5--5--5----|--5--5--5--5s-7--7--7--7s---|
----------------------------|----------------------------|


----------------------------|----------------------------|
----------------------------|----------------------------|
--6--6--6--6----------------|----------------------------|
--7--7--7--7s-9M-9--9--9----|--9M-9--9--9--9M-9--9--9----|
--4--4--4--4s-9M-9--9--9----|--9M-9--9--9--9M-9--9--9----|
--------------9M-9--9--9----|--9M-9--9--9--9M-9--9--9----|


----------------------------|----------------------------|-------|
----------------------------|----------------------------|--10---|
--4--4--4--4s-9--9--9--9s---|--6--6--6--6----------------|--9----|
--7--7--7--7--x--x--x--x----|--7--7--7--7s-11M12L12L12M--|--9----|
--5--5--5--5s-7--7--7--7s---|--4--4--4--4s-11M12L12L12M--|--9----|
----------------------------|--------------11M12L12L12M--|--9----|


----------------------------|----------------------------|
----------------------------|----------------------------|
--9--9--9--9--9--11-11-11---|--11-11-11-4--4--4--4--4----|
--x--x--x--x--x--x--x--x----|--x--x--x--7--7--7--7--7----|
--7--7--7--7--7--9--9--9----|--9--9--9--5--5--5--5--5----|
----------------------------|----------------------------|


--------------5-------------|--------------5-------------|
--------------x-------------|--------------x-------------|
--6--6--6--6--7-------------|--6--6--6--6--7-------------|
--7--7--7--7--7-------------|--7--7--7--7--7-------------|
--4--4--4--4--5-------------|--4--4--4--4--5-------------|
----------------------------|----------------------------|


----------------------------|----------------------------|
--10------------------------|----------------------------|
--12s---------6--6--6--6----|--4--4--4--4--4--4--4--4----|
--12s---------7--7--7--7----|--7--7--7--7--7--7--7--7----|
--10s---------4--4--4--4----|--5--5--5--5--5--5--5--5----|
----------------------------|----------------------------|


----------------------------||--------------------------------------||
----------------------------||--------------------------------------||
--6--6--6--6--6--6--6--6----||o4--4--4--4--4--4--6--6--6--6--6--6--o||
--7--7--7--7--7--7--7--7----||o7--7--7--7--7--7--7--7--7--7--7--7--o||
--4--4--4--4--4--4--4--4----||-5--5--5--5--5--5--4--4--4--4--4--4---||
----------------------------||--------------------------------------||


----------------------------|----------------------------||
----------------------------|----------------------------||
--4--4--4--4--4--4--4--4----|--6--6--6--6--6--6--6--6----||
--7--7--7--7--7--7--7--7----|--7--7--7--7--7--7--7--7----||
--5--5--5--5--5--5--5--5----|--4--4--4--4--4--4--4--4----||
----------------------------|----------------------------||


--------------------------------------||-------|-------|-------------------|
--------------------------------------||-------|-------|-------------------|
o4--4--4--4--4--4--6--6--6--6--6--6--o||-------|-------|-------------------|
o7--7--7--7--7--7--7--7--7--7--7--7--o||--5L---|--5L---|--5L-5L-5L-5L-5----|
-5--5--5--5--5--5--4--4--4--4--4--4---||--5L---|--5L---|--5L-5L-5L-5L-5----|
--------------------------------------||--5L---|--5L---|--5L-5L-5L-5L-5----|


----------------------------|----------------------------|
----------------------------|----------------------------|
--4--4--4--4--4--6--6--6----|--6--6--6--6s-7--7--7--7----|
--7--7--7--7--7--7--7--7----|--7--7--7--7--7--7--7--7----|
--5--5--5--5--5--4--4--4----|--4--4--4--4s-5--5--5--5----|
----------------------------|----------------------------|


----------------------------|----------------------------|
----------------------------|----------------------------|
--7--11-9--9--7--7--6--6----|--4--4--4--4--4--6--6--6----|
--7--x--x--x--x--x--x--x----|--7--7--7--7--7--7--7--7----|
--5--9--7--7--5--5--4--4----|--5--5--5--5--5--4--4--4----|
----------------------------|----------------------------|


----------------------------|----------------------------|
----------------------------|----------------------------|
--6--6--6--6s-7--7--7--7----|--7--7--7--7--7--7--7--7----|
--7--7--7--7--7--7--7--7----|--7--7--7--7--7--7--7--7----|
--4--4--4--4s-5--5--5--5----|--5--5--5--5--5--5--5--5----|
----------------------------|----------------------------|


----------------------------|----------------------------|
----------------------------|----------------------------|
--4--4--4--4s-9--9--9--9s---|--6--6--6--6s-11-11-11-11---|
--7--7--7--7--x--x--x--x----|--7--7--7--7--x--x--x--x----|
--5--5--5--5s-7--7--7--7s---|--4--4--4--4s-9--9--9--9----|
----------------------------|----------------------------|


----------------------------------------|----------------------------|
----------------------------------------|----------------------------|
--11-11-11-11-11-11-9--9--7--7--6--6----|--4--4--4--4s-9--9--9--9s---|
--x--x--x--x--x--x--x--x--x--x--x--x----|--7--7--7--7--x--x--x--x----|
--9--9--9--9--9--9--7--7--5--5--4--4----|--5--5--5--5s-7--7--7--7s---|
----------------------------------------|----------------------------|


----------------------------|----------------------------------------|
----------------------------|----------------------------------------|
--6--6--6--6s-4--4--4--4----|--4--4--4--4--4--4--4--4--4--4--4--4----|
--7--7--7--7--7--7--7--7----|--7--7--7--7--7--7--7--7--7--7--7--7----|
--4--4--4--4s-5--5--5--5----|--5--5--5--5--5--5--5--5--5--5--5--5----|
----------------------------|----------------------------------------|


----------------------------------------------------|
----------------------------------------------------|
--7M-7M-7M-7M-7M-7M-7M-7M-9M-9M-9M-9M-6M-6M-6M-6M---|
--xM-xM-xM-xM-xM-xM-xM-xM-xM-xM-xM-xM-xM-xM-xM-xM---|
--5M-5M-5M-5M-5M-5M-5M-5M-7M-7M-7M-7M-4M-4M-4M-4M---|
----------------------------------------------------|


----------------------------------------------------|
----------------------------------------------------|
--4M-4M-4M-4M-4M-4M-4M-4M-11M11M11M11M11M11M11M11M--|
--xM-xM-xM-xM-xM-xM-xM-xM-xM-xM-xM-xM-xM-xM-xM-xM---|
--2M-2M-2M-2M-2M-2M-2M-2M-9M-9M-9M-9M-9M-9M-9M-9M---|
----------------------------------------------------|


----------------------------------------------------|
----------------------------------------------------|
--7M-7M-7M-7M-7M-7M-7M-7M-9M-9M-9M-9M-6M-6M-6M-6M---|
--xM-xM-xM-xM-xM-xM-xM-xM-xM-xM-xM-xM-xM-xM-xM-xM---|
--5M-5M-5M-5M-5M-5M-5M-5M-7M-7M-7M-7M-4M-4M-4M-4M---|
----------------------------------------------------|


----------------------------------------------------|
----------------------------------------------------|
--4M-4M-4M-4M-4M-4M-4M-4M-11M11M11M11M11M11M11M11M--|
--xM-xM-xM-xM-xM-xM-xM-xM-xM-xM-xM-xM-xM-xM-xM-xM---|
--2M-2M-2M-2M-2M-2M-2M-2M-9M-9M-9M-9M-9M-9M-9M-9M---|
----------------------------------------------------|


----------------------------------------------------|
----------------------------------------------------|
--7M-7M-7M-7M-7M-7M-7M-7M-9M-9M-9M-9M-6M-6M-6M-6M---|
--xM-xM-xM-xM-xM-xM-xM-xM-xM-xM-xM-xM-xM-xM-xM-xM---|
--5M-5M-5M-5M-5M-5M-5M-5M-7M-7M-7M-7M-4M-4M-4M-4M---|
----------------------------------------------------|


----------------------------------------------------|
----------------------------------------------------|
--4M-4M-4M-4M-4M-4M-4M-4M-11M11M11M11M11M11M11M11M--|
--xM-xM-xM-xM-xM-xM-xM-xM-xM-xM-xM-xM-xM-xM-xM-xM---|
--2M-2M-2M-2M-2M-2M-2M-2M-9M-9M-9M-9M-9M-9M-9M-9M---|
----------------------------------------------------|


----------------------------------------------------|
----------------------------------------------------|
--7M-7M-7M-7M-7M-7M-7M-7M-9M-9M-9M-9M-6M-6M-6M-6M---|
--xM-xM-xM-xM-xM-xM-xM-xM-xM-xM-xM-xM-xM-xM-xM-xM---|
--5M-5M-5M-5M-5M-5M-5M-5M-7M-7M-7M-7M-4M-4M-4M-4M---|
----------------------------------------------------|


----------------------------------------------------|
----------------------------------------------------|
--4M-4M-4M-4M-4M-4M-4M-4M-11M11M11M11M11M11M11M11M--|
--xM-xM-xM-xM-xM-xM-xM-xM-xM-xM-xM-xM-xM-xM-xM-xM---|
--2M-2M-2M-2M-2M-2M-2M-2M-9M-9M-9M-9M-9M-9M-9M-9M---|
----------------------------------------------------|


----------------------------------------------------|
----------------------------------------------------|
--7M-7M-7M-7M-7M-7M-7M-7M-9M-9M-9M-9M-6M-6M-6M-6M---|
--xM-xM-xM-xM-xM-xM-xM-xM-xM-xM-xM-xM-xM-xM-xM-xM---|
--5M-5M-5M-5M-5M-5M-5M-5M-7M-7M-7M-7M-4M-4M-4M-4M---|
----------------------------------------------------|


----------------------------------------------------|
----------------------------------------------------|
--4M-4M-4M-4M-4M-4M-4M-4M-11M11M11M11M11M11M11M11M--|
--xM-xM-xM-xM-xM-xM-xM-xM-xM-xM-xM-xM-xM-xM-xM-xM---|
--2M-2M-2M-2M-2M-2M-2M-2M-9M-9M-9M-9M-9M-9M-9M-9M---|
----------------------------------------------------|


----------------------------------------------------|
----------------------------------------------------|
--7M-7M-7M-7M-7M-7M-7M-7M-9M-9M-9M-9M-6M-6M-6M-6M---|
--xM-xM-xM-xM-xM-xM-xM-xM-xM-xM-xM-xM-xM-xM-xM-xM---|
--5M-5M-5M-5M-5M-5M-5M-5M-7M-7M-7M-7M-4M-4M-4M-4M---|
----------------------------------------------------|


----------------------------------------------------|
----------------------------------------------------|
--4M-4M-4M-4M-4M-4M-4M-4M-11M11M11M11M11M11M11M11M--|
--xM-xM-xM-xM-xM-xM-xM-xM-xM-xM-xM-xM-xM-xM-xM-xM---|
--2M-2M-2M-2M-2M-2M-2M-2M-9M-9M-9M-9M-9M-9M-9M-9M---|
----------------------------------------------------|


----------------------------------------------------|
----------------------------------------------------|
--7M-7M-7M-------7M-7M-7M-9M-9M-9M-9M-6M-6M-6M-6M---|
--xM-xM-xM-xM-xM-xM-xM-xM-xM-xM-xM-xM-xM-xM-xM-xM---|
--5M-5M-5M-5M-5M-5M-5M-5M-7M-7M-7M-7M-4M-4M-4M-4M---|
----------------------------------------------------|


----------------------------------------------------|
----------------------------------------------------|
--4M----------4M-------4M-11M11M11M11M11M11M11M11M--|
--xM-xM-xM-xM-xM-xM-xM-xM-xM-xM-xM-xM-xM-xM-xM-xM---|
--2M-2M-2M-2M-2M-2M-2M-2M-9M-9M-9M-9M-9M-9M-9M-9M---|
----------------------------------------------------|


----------------------------------------------------|
----------------------------------------------------|
--7M-7M-7M-------7M-7M-7M-9M-9M-9M-9M-6M-6M-6M-6M---|
--xM-xM-xM-xM-xM-xM-xM-xM-xM-xM-xM-xM-xM-xM-xM-xM---|
--5M-5M-5M-5M-5M-5M-5M-5M-7M-7M-7M-7M-4M-4M-4M-4M---|
----------------------------------------------------|


----------------------------------------------------|
----------------------------------------------------|
--4M----------4M-------4M-11M11M11M11M11M11M11M11M--|
--xM-xM-xM-xM-xM-xM-xM-xM-xM-xM-xM-xM-xM-xM-xM-xM---|
--2M-2M-2M-2M-2M-2M-2M-2M-9M-9M-9M-9M-9M-9M-9M-9M---|
----------------------------------------------------|


----------------------------------------------------|
----------------------------------------------------|
--7M-7M-7M-------7M-7M-7M-9M-9M-9M-9M-6M-6M-6M-6M---|
--xM-xM-xM-xM-xM-xM-xM-xM-xM-xM-xM-xM-xM-xM-xM-xM---|
--5M-5M-5M-5M-5M-5M-5M-5M-7M-7M-7M-7M-4M-4M-4M-4M---|
----------------------------------------------------|


----------------------------------------------------|
----------------------------------------------------|
--4M----------4M-------4M-11M11M11M11M11M11M11M11M--|
--xM-xM-xM-xM-xM-xM-xM-xM-xM-xM-xM-xM-xM-xM-xM-xM---|
--2M-2M-2M-2M-2M-2M-2M-2M-9M-9M-9M-9M-9M-9M-9M-9M---|
----------------------------------------------------|


----------------------------------------------------|
----------------------------------------------------|
--7M-7M-7M-------7M-7M-7M-9M-9M-9M-9M-6M-6M-6M-6M---|
--xM-xM-xM-xM-xM-xM-xM-xM-xM-xM-xM-xM-xM-xM-xM-xM---|
--5M-5M-5M-5M-5M-5M-5M-5M-7M-7M-7M-7M-4M-4M-4M-4M---|
----------------------------------------------------|


----------------------------------------------------|-------||
----------------------------------------------------|-------||
--4M----------4M-------4M-11M11M11M11M11M11M11M11M--|--9----||
--xM-xM-xM-xM-xM-xM-xM-xM-xM-xM-xM-xM-xM-xM-xM-xM---|--x----||
--2M-2M-2M-2M-2M-2M-2M-2M-9M-9M-9M-9M-9M-9M-9M-9M---|--7----||
----------------------------------------------------|-------||


            
            
Suggest correction
Creating personal tab
Creating personal tab
You can edit any tab online and save it as your Personal.

You can edit, replace or remove any tab part or add personal notes – all changes will be seen only by you.

Personal tabs can be accessed anytime from any device, even offline.
Learn more »
Give kudos to tab author, rate the tab!
1 2 3 4 5
comments
print report bad tab
guest
You may want to rate the tab now too:
select rating
Wanna post a correction for this tab? Suggest correction