Oops, an error
Loading. Please wait.

Bang Bang tab

version 2
version 2

Whole song

1,697 views 18 this week
no commentswrite comment
1 2 3 4 5
x 4
add to favorites
×
Save as Personal and add changes to this tab that will be seen only by you. Learn more ›
×
You can save this tab as Personal to edit and correct it or add notes. All changes will be seen only by you. Learn more »
launch autoscroll
font size
0
reset
how to read this tab
guitar tuner
edit
Autoscroll
slow
fast
+/-
esc
set tempo
stop
Author
Difficulty
  

              -------------------------------------------------------------------------------
                                         BANG! BANG! - Iwan Rheon
              -------------------------------------------------------------------------------


Tabbed by: Cantijustbejoe

Tuning: Standard

Thanks to Joeblerone for getting this started.

Column of x indicates string slap.
U/D indicates an up or down strum respectively.


Intro:

e|--------------------------------|--------------------------------|--------------------------------|
B|--8-x-7-----x---7---x-7-----x---|--6-x-6-----x---6---x-5-----x---|--3-x-3-----x-----3-x-3-----x---|
G|--7-x-7-----x---7---x-7-----x---|--5-x-5-----x---5---x-5-----x---|--4-x-4-----x-----4-x-4-----x---|
D|----x-------x-------x-------x---|0---x-------x-------x-------x---|----x-------x-------x-------x---|
A|7---x-7-----x-------x-------x---|----x-7-----x-------x-------x---|----x-------x-------x-------x---|
E|----------------7-----5---------|----------------5-----5---------|3-----3---------3-----3---------|


Verse 1:

e|--------------------------------|--------------------------------|--------------------------------|
B|--8-x-7-----x-----7-x-7-----x---|--6-x-6-----x---6---x-5-----x---|--3-x-3-----x-----3-x-3-----x---|
G|--7-x-7-----x-----7-x-7-----x---|--5-x-5-----x---5---x-5-----x---|--4-x-4-----x-----4-x-4-----x---|
D|----x-------x-------x-------x---|0---x-------x-------x-------x---|----x-------x-------x-------x---|
A|7---x-7-----x-------x-------x---|----x-7-----x-------x-------x---|----x-------x-------x-------x---|
E|----------------7-----5---------|----------------5-----5---------|3-----3---------3-----3---------|    [x2]

"Bang bang..."
e|--------------------------------|--------------------------------|
B|--1-x-1-----x-----5-x-5-----x---|--3-x-3-----x-----3-x-3-----x---|
G|--2-x-2-----x-----5-x-5-----x---|--4-x-4-----x-----4-x-4-----x---|
D|----x-------x-------x-------x---|----x-------x-------x-------x---|
A|----x-------x-------x-------x---|----x-------x-------x-------x---|
E|1-----1---------5-----5---------|3-----3---------3-----3---------|


Verse 2:

e|--------------------------------|--------------------------------|----------3---------------3-----|
B|--8-x-7-----x-----7-x-7-----x---|--6-x-6-----x---6---x-5-----x---|--3-x-3---3-x-----3-x-3---3-x---|
G|--7-x-7-----x-----7-x-7-----x---|--5-x-5-----x---5---x-5-----x---|--4-x-4-----x-----4-x-4-----x---|
D|----x-------x-------x-------x---|----x-------x-------x-------x---|----x-------x-------x-------x---|
A|7---x-7-----x-------x-------x---|5---x-7-----x-------x-------x---|----x-------x-------x-------x---|
E|----------------7-----5---------|----------------5-----5---------|3-----3---------3-----3---------|    [x2]
                                                                              U               U

e|----------1---------------5-----|----------3---------------3-----|
B|--1-x-1---1-x-----5-x-5---5-x---|--3-x-3---3-x-3---3-x-3---3-x-3-|
G|--2-x-2-----x-----5-x-5-----x---|--4-x-4-----x-4---4-x-4-----x-4-|
D|----x-------x-------x-------x---|----x-------x-------x-------x---|
A|----x-------x-------x-------x---|----x-------x-------x-------x---|
E|1-----1---------5-----5---------|3-----3---------3-----3---------|    [x2]
            U               U                U               U   


Chorus 1:

e|----------5---------------3-----|----------3---------------1-----|----------0---------------0-----|
B|--6-x-6---6-x-6---5-x-5---5-x-5-|--3-x-3---3-x-3---1-x-1---1-x-1-|--1-x-1---1-x-1---1-x-1---1-x-1-|
G|--5-x-5-----x-5---5-x-5-----x-5-|--4-x-4-----x-4---2-x-2-----x-2-|--0-x-0-----x-0---0-x-0-----x-0-|
D|----x-------x-------x-------x---|----x-------x-------x-------x---|----x-------x-------x-------x---|
A|5---x-5-----x---3---x-3-----x---|----x-------x-------x-------x---|3---x-3-----x---3---x-3-----x---|
E|--------------------------------|3-----3---------1-----1---------|--------------------------------|
            U   U           U   U            U   U           U   U            U   U           U   U

e|----------5---------------3-----|----------3---------------1-----|----------8---------------8-----|
B|--6-x-6---6-x-6---5-x-5---5-x-5-|--3-x-3---3-x-3---1-x-1---1-x-1-|--8-x-8---8-x-8---8-x-8---8-x-8-|
G|--5-x-5-----x-5---5-x-5-----x-5-|--4-x-4-----x-4---2-x-2-----x-2-|--9-x-9-----x-9---9-x-9-----x-9-|
D|----x-------x-------x-------x---|----x-------x-------x-------x---|----x-------x-------x-------x---|
A|5---x-5-----x---3---x-3-----x---|----x-------x-------x-------x---|----x-------x-------x-------x---|
E|--------------------------------|3-----3---------1-----1---------|8-----8---------8-----8---------|
            U   U           U   U            U   U           U   U            U   U           U   U


Verse 3:

e|--------------------------------|--------------------------------|----------3---------------3-----|
B|--8-x-7-----x---7---x-7-----x---|--6-x-6-----x---6---x-5-----x---|--3-x-3---3-x-3---3-x-3---3-x-3-|
G|--7-x-7-----x---7---x-7-----x---|--5-x-5-----x---5---x-5-----x---|--4-x-4-----x-4---4-x-4-----x-4-|
D|----x-------x-------x-------x---|----x-------x-------x-------x---|----x-------x-------x-------x---|
A|7---x-7-----x-------x-------x---|5---x-7-----x-------x-------x---|----x-------x-------x-------x---|
E|----------------7-----5---------|----------------5-----5---------|3-----3---------3-----3---------|    [x2]
                                                                              U               U

(Now strumming)

e|1-1---1---1---1-5-5---5---5---5-|3-3---3---3---3---3---3---3---3-|
B|1-1-x-1---1-x-1-5-5-x-5---5-x-5-|3-3-x-3---3-x-3---3-x-3---3-x-3-|
G|2-2-x-2---2-x-2-5-5-x-5---5-x-5-|4-4-x-4---4-x-4---4-x-4---4-x-4-|
D|3-3-x-3---3-x-3-7-7-x-7---7-x-7-|5-5-x-5---5-x-5---5-x-5---5-x-5-|
A|3-3-x-3---3-x-3-7-7-x-7---7-x-7-|5-5-x-5---5-x-5---5-x-5---5-x-5-|
E|1-1---1---1---1-5-5---5---5---5-|3-3---3---3---3---3---3---3---3-|    [x2]
  D U   U   U   U D U   U   U   U  D U   U   U   U   U   U   U   U


Chorus 2:

e|5-5---5---5---5-3-3---3---3---3-|3-3---3---3---3-1-1---1---1---1-|0-0---0---0---0---0---0---0---0-|
B|6-6-x-6---6-x-6-5-5-x-5---5-x-5-|3-3-x-3---3-x-3-1-1-x-1---1-x-1-|1-1-x-1---1-x-1---1-x-1---1-x-1-|
G|5-5-x-5---5-x-5-5-5-x-5---5-x-5-|4-4-x-4---4-x-4-2-2-x-2---2-x-2-|0-0-x-0---0-x-0---0-x-0---0-x-0-|
D|7-7-x-7---7-x-7-5-5-x-5---5-x-5-|5-5-x-5---5-x-5-3-3-x-3---3-x-3-|2-2-x-2---2-x-2---2-x-2---2-x-2-|
A|5-5-x-5---5-x-5-3-3-x-3---3-x-3-|5-5-x-5---5-x-5-3-3-x-3---3-x-3-|3-3-x-3---3-x-3---3-x-3---3-x-3-|
E|--------------------------------|3-3---3---3---3-1-1---1---1---1-|--------------------------------|
  D U   U   U   U D U   U   U   U  D U   U   U   U D U   U   U   U  D U   U   U   U   U   U   U   U

e|5-5---5---5---5-3-3---3---3---3-|3-3---3---3---3-1-1---1---1---1-|8--8----8----8----8----8----8----8----8--|
B|6-6-x-6---6-x-6-5-5-x-5---5-x-5-|3-3-x-3---3-x-3-1-1-x-1---1-x-1-|8--8--x-8----8--x-8----8--x-8----8--x-8--|
G|5-5-x-5---5-x-5-5-5-x-5---5-x-5-|4-4-x-4---4-x-4-2-2-x-2---2-x-2-|9--9--x-9----9--x-9----9--x-9----9--x-9--|
D|7-7-x-7---7-x-7-5-5-x-5---5-x-5-|5-5-x-5---5-x-5-3-3-x-3---3-x-3-|10-10-x-10---10-x-10---10-x-10---10-x-10-|
A|5-5-x-5---5-x-5-3-3-x-3---3-x-3-|5-5-x-5---5-x-5-3-3-x-3---3-x-3-|10-10-x-10---10-x-10---10-x-10---10-x-10-|
E|--------------------------------|3-3---3---3---3-1-1---1---1---1-|8--8----8----8----8----8----8----8----8--|
  D U   U   U   U D U   U   U   U  D U   U   U   U D U   U   U   U  D  U    U    U    U    U    U    U    U

"Bang bang..."
e|3-3---3---3---3-1-1---1---1---1-|5-5---5---5---5-3-3---3---3---3---3---3---3---3-|
B|3-3-x-3---3-x-3-1-1-x-1---1-x-1-|5-5-x-5---5-x-5-3-3-x-3---3-x-3---3-x-3---3-x-3-|
G|4-4-x-4---4-x-4-2-2-x-2---2-x-2-|5-5-x-5---5-x-5-4-4-x-4---4-x-4---4-x-4---4-x-4-|
D|5-5-x-5---5-x-5-3-3-x-3---3-x-3-|7-7-x-7---7-x-7-5-5-x-5---5-x-5---5-x-5---5-x-5-|
A|5-5-x-5---5-x-5-3-3-x-3---3-x-3-|7-7-x-7---7-x-7-5-5-x-5---5-x-5---5-x-5---5-x-5-|
E|3-3---3---3---3-1-1---1---1---1-|5-5---5---5---5-3-3---3---3---3---3---3---3---3-|
  D U   U   U   U D U   U   U   U  D U   U   U   U D U   U   U   U   U   U   U   U

e|1-1---1---1---1-5-5---5---5---5-|3-3---3---3---3---3---3---3---3-|
B|1-1-x-1---1-x-1-5-5-x-5---5-x-5-|3-3-x-3---3-x-3---3-x-3---3-x-3-|
G|2-2-x-2---2-x-2-5-5-x-5---5-x-5-|4-4-x-4---4-x-4---4-x-4---4-x-4-|
D|3-3-x-3---3-x-3-7-7-x-7---7-x-7-|5-5-x-5---5-x-5---5-x-5---5-x-5-|
A|3-3-x-3---3-x-3-7-7-x-7---7-x-7-|5-5-x-5---5-x-5---5-x-5---5-x-5-|
E|1-1---1---1---1-5-5---5---5---5-|3-3---3---3---3---3---3---3---3-|
  D U   U   U   U D U   U   U   U  D U   U   U   U   U   U   U   U


Verse 4:

e|--------------------------------|--------------------------------|--------------------------------|
B|--8-x-7-----x---7---x-7-----x---|--6-x-6-----x---6---x-5-----x---|--3-x-3-----x-----3-x-3-----x---|
G|--7-x-7-----x---7---x-7-----x---|--5-x-5-----x---5---x-5-----x---|--4-x-4-----x-----4-x-4-----x---|
D|----x-------x-------x-------x---|0---x-------x-------x-------x---|----x-------x-------x-------x---|
A|7---x-7-----x-------x-------x---|----x-7-----x-------x-------x---|----x-------x-------x-------x---|
E|----------------7-----5---------|----------------5-----5---------|3-----3---------3-----3---------|

e|--------------------------------|--------------------------------|
B|--1-x-1-----x-----5-x-5-----x---|--3-x-3-----x-----3-x-3-----x---|
G|--2-x-2-----x-----5-x-5-----x---|--4-x-4-----x-----4-x-4-----x---|
D|----x-------x-------x-------x---|----x-------x-------x-------x---|
A|----x-------x-------x-------x---|----x-------x-------x-------x---|
E|1-----1---------5-----5---------|3-----3---------3-----3---------|    [x2]


Outtro:

e|5---------------3---------------|3---------------1---------------|8-------------------------------|
B|6---------------5---------------|3---------------1---------------|8-------------------------------|
G|5---------------5---------------|4---------------2---------------|9-------------------------------|
D|7---------------5---------------|5---------------3---------------|10------------------------------|
A|5---------------3---------------|5---------------3---------------|10------------------------------|
E|--------------------------------|3---------------1---------------|8-------------------------------|
  D               D                D               D                D




            
            
Suggest correction
Creating personal tab
Creating personal tab
You can edit any tab online and save it as your Personal.

You can edit, replace or remove any tab part or add personal notes – all changes will be seen only by you.

Personal tabs can be accessed anytime from any device, even offline.
Learn more »
comments
print report bad tab
guest
You may want to rate the tab now too:
select rating
Wanna post a correction for this tab? Suggest correction