Oops, an error
Loading. Please wait.

15 De Agosto tab

version 1
version 1

Whole song

56 views 1 this week
no commentswrite comment
1 2 3 4 5
3 more votes to show rating
add to favorites
×
Save as Personal and add changes to this tab that will be seen only by you. Learn more ›
×
You can save this tab as Personal to edit and correct it or add notes. All changes will be seen only by you. Learn more »
launch autoscroll
font size
0
reset
how to read this tab
guitar tuner
edit
Autoscroll
slow
fast
+/-
esc
set tempo
stop
Intro:

E||--------------------------------|----------------------------|
B||--------------------------------|----------------------------|
G||--------------------------------|----------------------------|
D||---------------0-2-2--0-------0-|--2-2--0--------------------|
A||--3-3--3-3---3----------3---3---|---------3-2--0-------------|
E||-----------3--------------3-----|----------------3-1---------|


--------------------------------|----------------------------|
--------------------------------|----------------------------|
--------------------------------|----------------------------|
-----------------0-0------------|--0-0-----------------------|
--2-2--2-2---2-3------3-2---2-3-|-------3-2-0----------------|
-----------3--------------3-----|--------------3-1-0---------|


--------------------------------|----------------------------|
--------------------------------|----------------------------|
--------------------------------|----------------------------|
---------------0-2-2--0-------0-|--2-2--0---0--2-3-0---------|
--3-3--3-3---3----------3---3---|---------3------------------|
-----------3--------------3-----|----------------------------|


-------------------------------|----------------------------||
-------------------------------|----------------------------||
-------------------------------|----------------------------||
--------------0-2-2--0---------|--0-0-----------0-----------||
-------0-2-3-----------3---2-3-|-------3-2-0--2---3---------||
--1-3--------------------3-----|----------------------------||


     C C   C   G G   G   C
Como todos los meses de agosto
                      F
al llegar la fiesta mayor,
                           G
nos pondremos la muda bien limpia
                          C
y del brazo saldremos los dos.


    C                 F
Dejaremos que pase la peña,
        G            C
donde está el hijo mayor,
      Am                      F
que borracho a las seis de la tarde
     G           C
no conocerá ni a Dios.


     C                  F
Buscaremos a nuestros parientes,
      G                 C
que viven al lado de un Pub,
      Am                     F
donde todas las noches los matan
     G              C
con eso del pim pam pum.


C
Y pa bailar también habrá que pagar,
                              F
no sé cuánto cobrarán estas orquestas.
G
Mira el José como se preta a la Chon
                                C
y que alta tiene la voz el guitarrista.

Ya han empezado con la monserga del rock,
                            F
ya se ha jodido lo de la ranchera
G                C
sólo falta que pidan a Ixo Rai!
        G                         C
¡Anda vamos! Que invito a unas cervezas.


 C C   C G   G G   C
Y mañana iremos a las vacas
                          F
que es fijo en la programación.
                           G
Faltarán perras para otras cosas
                      C
pero aquí gastan un millón.


      C              F
Luego bajaremos a la plaza
       G           C
que llaman Constitución,
      Am                F
no sé pa que cambian de nombre
        G           C
siempre fue plaza Mayor.


    C                     F
Dejaremos que aguanten al crío
      G          C
el grupo de animación
        Am                   F
y a esperar que empiecen las jotas
        G               C
que eso siempre es lo mejor.


C
Y pa bailar también habrá que pagar,
                              F
no sé cuánto cobrarán estas orquestas.
G
Mira el José como se preta a la Chon
                                C
y que alta tiene la voz el guitarrista.

Ya han empezado con la monserga del rock,
                            F
ya se ha jodido lo de la ranchera
G                C
sólo falta que pidan a Ixo Rai!
        G                         C
¡Anda vamos! Que invito a unas cervezas.

            
            
Suggest correction
Creating personal tab
Creating personal tab
You can edit any tab online and save it as your Personal.

You can edit, replace or remove any tab part or add personal notes – all changes will be seen only by you.

Personal tabs can be accessed anytime from any device, even offline.
Learn more »
Give kudos to tab author, rate the tab!
1 2 3 4 5
comments
print report bad tab
guest
Wanna post a correction for this tab? Suggest correction