Oops, an error
Loading. Please wait.

After Midnight bass

version 1
version 1

Whole song

Interactive

1,770 views 36 this week
1 commentread comment
1 2 3 4 5
2 more votes to show rating
add to favorites
×
Save as Personal and add changes to this tab that will be seen only by you. Learn more ›
×
You can save this tab as Personal to edit and correct it or add notes. All changes will be seen only by you. Learn more »
launch autoscroll
font size
0
reset
guitar tuner
edit
Autoscroll
slow
fast
+/-
esc
set tempo
stop
Author
Difficulty
JJ cale  
After Midnight 


Bass Tab


Tuning: EADG
Tempo: ??? bpm 
Key signature: D



Intro: 00:01 
G|-------------------||-------------------|-  
D|-------------------||-------------------|-
A|----------------5r-||----------------5r-|- X2  
E|-0-0g-0-1r-3\4\5---||-0-0g-0-1r-3\4\5---|- 
            

Verse1: 00:10 
G|-------------------||-------------------||-------------------|-  
D|-------------------||-------------------||-------------------|-
A|----------------5r-||----------------5r-||----------------5r-|-  
E|-3-4-5-1r--1-3g\---||-0-0g-0-1r-3\4\5---||-0-0g-0-1r-3\4\5---|-  
After midnight, we're gonna let it all hang out

G|-------------------||-------------------||-------------------|-  
D|-------------------||-------------------||-------------------|-
A|----------------5r-||----------------5r-||----------------5r-|-  
E|-3-4-5-1r--1-3g\---||-0-0g-0-1r-3\4\5---||-0-0g-0-1r-3\4\5---|-  
After midnight, we're gonna chug-a-lug and shout

G|---------------------------------------------------||----------|- 
D|---------------------------------------------------||----------|-
A|---------------------------------------------------||-2-3-4-5r-|- 
E|-3-4-5-1r--1-1-1-1--1-2-3--3-3-3-3--3-4-5--5-5-5-5-||----------|-
We're gonna cause talk and suspicion
Give an exhibition
Find out what it is all about

Verse2: 00:40
G|-------------------||-------------------||-------------------|-  
D|-------------------||-------------------||-------------------|-
A|----------------5r-||----------------5r-||----------------5r-|-  
E|-3-4-5-1r--1-3g\---||-0-0g-0-1r-3\4\5---||-0-0g-0-1r-3\4\5---|-  
After midnight, we're gonna let it all hang out

G|-------------------||-------------------||-------------------|-  
D|-------------------||-------------------||-------------------|-
A|----------------5r-||----------------5r-||----------------5r-|-  
E|-3-4-5-1r--1-3g\---||-0-0g-0-1r-3\4\5---||-0-0g-0-1r-3\4\5---|-  
After midnight, gonna shake your tambourine

G|-------------------||-------------------||-------------------|-  
D|-------------------||-------------------||-------------------|-
A|----------------5r-||----------------5r-||----------------5r-|-  
E|-3-4-5-1r--1-3g\---||-0-0g-0-1r-3\4\5---||-0-0g-0-1r-3\4\5---|-  
After midnight, it's gonna be peaches and cream

G|---------------------------------------------------||----------|- 
D|---------------------------------------------------||----------|-
A|---------------------------------------------------||-2-3-4-5r-|- 
E|-3-4-5-1r--1-1-1-1--1-2-3--3-3-3-3--3-4-5--5-5-5-5-||----------|-
We're gonna cause talk and suspicion
Give an exhibition
Find out what it is all about

After midnight, we're gonna let it all hang out
G|-------------------||-------------------||-------------------|-  
D|-------------------||-------------------||-------------------|-
A|----------------5r-||----------------5r-||----------------5r-|-  
E|-3-4-5-1r--1-3g\---||-0-0g-0-1r-3\4\5---||-0-0g-0-1r-3\4\5---|-  


Instrumental part: 01:27
G|-------------------||-------------------||-------------------|-  
D|-------------------||-------------------||-------------------|-
A|----------------5r-||----------------5r-||----------------5r-|-  
E|-3-4-5-1r--1-3g\---||-0-0g-0-1r-3\4\5---||-0-0g-0-1r-3\4\5---|-  

G|-------------------||-------------------||-------------------|-  
D|-------------------||-------------------||-------------------|-
A|----------------5r-||----------------5r-||----------------5r-|-  
E|-3-4-5-1r--1-3g\---||-0-0g-0-1r-3\4\5---||-0-0g-0-1r-3\4\5---|-  

Reprise: 01:47
G|---------------------------------------------------||----------|- 
D|---------------------------------------------------||----------|-
A|---------------------------------------------------||-2-3-4-5r-|- 
E|-3-4-5-1r--1-1-1-1--1-2-3--3-3-3-3--3-4-5--5-5-5-5-||----------|-
We're gonna cause talk and suspicion
Give an exhibition
Find out what it is all about

After midnight, we're gonna let it all hang out
G|-------------------||-------------------||-------------------|-  
D|-------------------||-------------------||-------------------|-
A|----------------5r-||----------------5r-||----------------5r-|-  
E|-3-4-5-1r--1-3g\---||-0-0g-0-1r-3\4\5---||-0-0g-0-1r-3\4\5---|-  

Outro: 02:08 (fading out)
After midnight, we're gonna let it all hang out
G|-------------------||-------------------||-------------------|-  
D|-------------------||-------------------||-------------------|-
A|----------------5r-||----------------5r-||----------------5r-|-  
E|-3-4-5-1r--1-3g\---||-0-0g-0-1r-3\4\5---||-0-0g-0-1r-3\4\5---|-  


End: 02:21



-----------------------------------------------------------
Tablature Legend ----------------  
| S  slap 
| P  pop 
| x  mute note
| .  full stop
| /  slide up 
| \  slide down
| >  link to next bar 
| h  hammer-on 
| p  pull-off 
| g  grace note 
| ~  vibrato 
| ^  brush up

            
            
Suggest correction
Creating personal tab
Creating personal tab
You can edit any tab online and save it as your Personal.

You can edit, replace or remove any tab part or add personal notes – all changes will be seen only by you.

Personal tabs can be accessed anytime from any device, even offline.
Learn more »
Give kudos to tab author, rate the tab!
1 2 3 4 5
comments
print report bad tab
1 comment total.
0 reply
sheila scotty 16 Aug 22, 2015 06:02 AM

Perfect as usual Mister Bluesman... Nicely written and very helpful... Thanks again

guest
You may want to rate the tab now too:
select rating
Wanna post a correction for this tab? Suggest correction