Oops, an error
Loading. Please wait.

Adrift tab

version 3
version 3

Whole song

30,827 views 24 this week
1 commentread comment
1 2 3 4 5
x 30
add to favorites
×
Save as Personal and add changes to this tab that will be seen only by you. Learn more ›
×
You can save this tab as Personal to edit and correct it or add notes. All changes will be seen only by you. Learn more »
launch autoscroll
font size
0
reset
how to read this tab
guitar tuner
edit
Autoscroll
slow
fast
+/-
esc
set tempo
stop
Author
Difficulty
(Guitar 1)

[Intro]
E|-----------------------------------------------------------------------------------------|
B|--1--------3--0--------3-----------0-(0)-1--------3--0--------3-----------3-----------0--|
G|-----0-----------0--------2-----------------0-----------0--------2-----------0-----------|
D|--------2-----------2--------2-----------------2-----------2--------2-----------2--------|
A|--3-----------3-----------3-----3--3-(3)-3-----------3-----------3-----3-----3-----3-----|
E|-----------------------------------------------------------------------------------------|

E|------------------------------------------------------------------------------------------------|
B|--1--------3--0--------3-----------3-----------3--1--------3--0--------3-----------3-----------3|
G|-----0-----------0--------2-----------0--------------0-----------0--------2-----------0---------|
D|--------2-----------2--------2-----------2--------------2-----------2--------2-----------2------|
A|--3-----------3-----------3-----3-----3-----3-----3-----------3-----------3-----3-----3-----3---|
E|------------------------------------------------------------------------------------------------|

[Verse]
E|-----------------------------------------------------------1----------------5-------3\1---------|
B|--1--------3--0--------3-----------3-----------3--------------------1--------------------0h1----|
G|-----0-----------0--------2-----------0-----------2-----------2--------2/5-(5)-5\4------------0-|
D|--------2-----------2--------2-----------2-----------3-----------3------------------------------|
A|--3-----------3-----------3-----3-----3-----3-----------3--------------------------------3(3)---|
E|--------------------------------------------------1---------------------------------------------|

E|-----------------------------------------------------1----------------5-------3\1---------------|
B|-----3--0--------3-----------3-----------3--------------------1--------------------0h1--------3-|
G|-----------0--------2-----------0-----------2-----------2--------2/5-(5)-5\4------------0-------|
D|--2-----------2--------2-----------2-----------3-----------3-------------------------------2----|
A|--------3-----------3-----3-----3-----3-----------3--------------------------------3(3)---------|
E|--------------------------------------------1---------------------------------------------------|

E|------------------------------------------------------------------------------------------------|
B|--0--------3-----------3-----------3-----------3-----------------3----------8--5----------------|
G|-----0--------2-----------0-----------4-----------4-----4-----------4-------------5--4--------2-|
D|--------2--------2-----------2-----------5-----------5-----5-----------5/7--------------5-------|
A|--3-----------3-----3-----3-----3-----------5-----------------5----------------------------5----|
E|--------------------------------------3-----------------3-------------------5--------3--------1-|

E|------------------------------------------------------------------------------------------------|
B|----------------1--1--------3--1-----0-----------3--------1--------3--0--------3-----------3----|
G|--2-------3-----------0-----------0-----4-----------4--------0-----------0--------2-----------0-|
D|-----1h3-----------------2-----------------5-----------5--------2-----------2--------2----------|
A|----------1--------3--------------------------5-----------3-----------3-----------3-----3-----3-|
E|-------------1--------------------------3-------------------------------------------------------|

E|-----------|
B|--------3--|
G|-----------|
D|--2--------|
A|-----3-----|
E|-----------|

(Repeat As Necessary)

(Guitar 2)
C
Your voice is adrift I can't expect it
           F
To sing to me
                        C
As if I was the only one
            F
I'll follow you
                               C
A leaf that's following the sun
             G
When will my weight be too much for you?
                Am           G        F
When will these ideas really be my own?
     C                      G
This moment keeps on moving
                              C
We were never meant to hold on

Well this was a scene worth waking up for
      F
When I woke up
                            C
You planted me in my own pot
           F
I don't know why
                             C
But somehow it just feels so wrong
         G
When you said I will be lonely
             Am                   G          F
But when you rise again I'll have become the sun
           C                   G
And I will shine down upon you
                           C
As if you were the only one

Your voice is your own I can't protect it
               F
You'll have to sing
                             C
A verse no one has ever known
         F
Don't be afraid
                               C
Because no one ever sings alone
                 G
Your weight will never be too much for me
     Am                G            F
Your ideas have always been your own
         C                      G
And this moment keeps on moving
                              C
We were never meant to hold on

            
            
Suggest correction
Creating personal tab
Creating personal tab
You can edit any tab online and save it as your Personal.

You can edit, replace or remove any tab part or add personal notes – all changes will be seen only by you.

Personal tabs can be accessed anytime from any device, even offline.
Learn more »
comments
print report bad tab
1 comment total.
+2 reply
JamesWames 10 Jul 06, 2013 03:42 PM

perfection

guest
You may want to rate the tab now too:
select rating
Wanna post a correction for this tab? Suggest correction