Oops, an error
Loading. Please wait.
We have Chord Pro version of Breakdown.
It's the closest thing you can get to the original song and it has interactive parts. Check out the tab »
×
1,421 views 1 this week
no commentswrite comment
1 2 3 4 5
2 more votes to show rating
add to favorites
×
Save as Personal and add changes to this tab that will be seen only by you. Learn more ›
×
You can save this tab as Personal to edit and correct it or add notes. All changes will be seen only by you. Learn more »
launch autoscroll
font size
0
reset
how to read this tab
guitar tuner
edit
Autoscroll
slow
fast
+/-
esc
set tempo
stop
Author
Difficulty
Jack Johnson
Breakdown


Chords   
Strumming pattern : D D U U D U 

1st guitar
e|-----8--------7-----5-----7--------------------------|
B|-----5--------8-----5-----6--------------------------|
G|-----5--------9-----6-----7--------------------------|
D|-----5--------9-----7-----5--------------------------|
A|-----------------------------------------------------|
E|-----------------------------------------------------|

2nd guitar

e|---------7------------7------------5-----------7----------|
B|-------5---5--------8---8--------5---5-------6---6--------|
G|-----5-------5----9-------9----6-------6---7-------7------|
D|---5------------9------------7-----------5----------------|
A|----------------------------------------------------------|
E|----------------------------------------------------------|



solo
e|---8-------------------8--------------------------|
B|-----10p8-----8----------10p8-----8---------------|
G|----------8h9---9p7-----------8h9---9p7-----------|
D|--------------------10------------------10--------|
A|--------------------------------------------------|
E|--------------------------------------------------|

e|----8h10p8p0-12-12-10-8---8h10p8p0-15-13--8h10p8p0-15-15-13-12--------|
B|----8h10p8p0-13-13-10-8---8h10p8p0-17-15--8h10p8p0-17-17-15-13--------|
G|----------------------------------------------------------------------|
D|----------------------------------------------------------------------|
A|----------------------------------------------------------------------|
E|----------------------------------------------------------------------|

e|----8h10p8p0-15-15-13-12-8-(8)-(8)----------------|
B|----8h10p8p0-17-17-15-13-8-(8)-(8)----------------|
G|--------------------------------------------------|
D|--------------------------------------------------|
A|--------------------------------------------------|
E|--------------------------------------------------|

lyrics

I hope this old train breaks down
Then I could take a walk around
And, see what there is to see
And time is just a melody
All the people in the street
Walk as fast as their feet can take them
I just roll through town
And though my windows got a view
The frame I'm looking through
Seems to have no concern for now
So for now

I need this
Old train to breakdown
Oh please just
Let me please breakdown

This engine screams out loud
Centipede gonna crawl westbound
So I don't even make a sound
Cause it's gonna sting me when I leave this town
All the people in the street
That I'll never get to meet
If these tracks don't bend somehow
And I got no time
That I got to get to
Where I don't need to be
So I

I need this
Old train to breakdown
Oh please just
Let me please breakdown
I need this
Old train to breakdown
Oh please just
Let me please breakdown
I wanna break on down
But I cant stop now
Let me break on down

But you cant stop nothing
If you got no control
Of the thoughts in your mind
That you kept in, you know
You don't know nothing
But you don't need to know
The wisdoms in the trees
Not the glass windows
You cant stop wishing
If you don't let go
But things that you find
And you lose, and you know
You keep on rolling
Put the moment on hold
The frames too bright
So put the blinds down low

I need this
Old train to breakdown
Oh please just
Let me please breakdown
I need this
Old train to breakdown
Oh please just
Let me please breakdown
I wanna break on down
But I cant stop now 



this is my fist tab i hope you like it

            
            
Suggest correction
Creating personal tab
Creating personal tab
You can edit any tab online and save it as your Personal.

You can edit, replace or remove any tab part or add personal notes – all changes will be seen only by you.

Personal tabs can be accessed anytime from any device, even offline.
Learn more »
Give kudos to tab author, rate the tab!
1 2 3 4 5
comments
print report bad tab
guest
You may want to rate the tab now too:
select rating
Wanna post a correction for this tab? Suggest correction