Oops, an error
Loading. Please wait.

Bubble Toes tab

version 1
version 1

Whole song

Interactive

Video

57,196 views 12 this week
2 commentsread comments
1 2 3 4 5
x 8
add to favorites
×
Save as Personal and add changes to this tab that will be seen only by you. Learn more ›
×
You can save this tab as Personal to edit and correct it or add notes. All changes will be seen only by you. Learn more »
launch autoscroll
font size
0
reset
how to read this tab
guitar tuner
edit
Autoscroll
slow
fast
+/-
esc
set tempo
stop
VERSE
e----------------------------------------------------------------------
b----------------------------------------------------------------------
g----------5-----7-----------------------------------------------------X5
d---5------5-x2--7x4---------------------------------------------------
a---5-x5---3-----5-----------------------------------------------------
e---3------------------------------------------------------------------
THAT COOL RUN THING
a----------------------------------------------------------------------
b----------------------------------------------------------------------
g----------------------------------------------------------------------
d----------------------------------------------------------------------
a-------2-3-5----------------------------------7-7-7-7-9-7-5-3---------
e----33-------3--------------------------------------------------------

a----------------------------------------------------------------------
b----------------------------------------------------------------------
g----------5-------7---------------------------------------------------till end
d---5------5-x2----7-x4------------------------------------------------
a---5-x5---3-------5---------------------------------------------------
e---3------------------------------------------------------------------

            
            
Suggest correction
Creating personal tab
Creating personal tab
You can edit any tab online and save it as your Personal.

You can edit, replace or remove any tab part or add personal notes – all changes will be seen only by you.

Personal tabs can be accessed anytime from any device, even offline.
Learn more »
comments
print report bad tab
2 comments total.
0 reply
mark flowers 0 Dec 28, 2002 07:00 PM

The begging slow part is played

D, A, G, A
and all I wanted was some part..


the run
a-------2-3-5----------7-7-7-7-9-7-5-3
e----33-------3-----------------------


and then the quick part of the verses with the la ta da da ta da part

G, C, D

0 reply
Blundell 60 Jul 12, 2003 08:00 PM

I Play it like this it is just a
Sugestion in the Chords i play this
-(3)----------------------
-(3)----------------------
--4------5-------5--------
--5------5--x2---5-x4-----
--5--x5--3-------7--------
--3-----------------------

your was is fine but i reckon that
this sounds just that little bit better

:P

Blundell

guest
Wanna post a correction for this tab? Suggest correction