Oops, an error
Loading. Please wait.

Mediocre Bad Guys tab

version 2
version 2

Whole song

178 views 3 this week
no commentswrite comment
1 2 3 4 5
2 more votes to show rating
add to favorites
×
Save as Personal and add changes to this tab that will be seen only by you. Learn more ›
×
You can save this tab as Personal to edit and correct it or add notes. All changes will be seen only by you. Learn more »
launch autoscroll
font size
0
reset
how to read this tab
guitar tuner
edit
Autoscroll
slow
fast
+/-
esc
set tempo
stop
Author
-Mediocre Bad Guys-
Jack Johnson
Tabbed by: Alex Shockley


Some kind of nifty effect, probably a flanger. 
Add in the fifths as you wish. 
Solo is not perfect, but you get the idea.


[Intro]

e|---------------------------------------------------------------------------|
B|---------------------------------------------------------------------------|
G|---------------------------------------------------------------------------|
D|--9------------------------------------------------------------------------|
A|--9--7h9p7--5--7h9p7-----7h9p7-------------5-5-5/9-9-----------------------|
E|--7-------------------5---------3-3-3/7-7----------------------------------|


[Verse]

        Bm             A               E
e|-------7-------------5---------------0-------------------------------------|
B|-------7-------------5---------------0-------------------------------------|
G|-------7-------------6---------------1-------------------------------------|
D|-------9-------------7---------------1-------------------------------------|
A|-------9-------------7---------------2-------------------------------------|
E|-------7-------------5---------------0-------------------------------------|


[Solo]

e|--7------------------------------------------------------------------------|
B|-----5--3---------3-----------------3--------3-----------------------------|
G|-----------4-2-4---------------2-4-----4-2-4-------------------------------|
D|------------------------0-2-4----------------------------------------------|
A|---------------------0-----------------------------------------------------|
E|-------------------------------------------------7-7-----------------------|

e|--7-------------------------------------------5-----------------------------|
B|-----5--3---------3-------------------3--3/7-----7\-------------------------|
G|-----------4-2-4----------------2-4-----------------------------------------|
D|------------------------0-2-4-----------------------------------------------|
A|---------------------0------------------------------------------------------|
E|----------------------------------------------------------------------------|


Well don't give me no comic book sad looks no more
Please don't use those same excuses you've used before
Mmm hmmm Mmm hmmm
You told yourself so many times it's okay
So eager to try
But you just don't know how to come back down
And now you beat me up, you break me down
Hoping I don't come around,
Kick me when I'm on the ground,
Beat me up, break me down,
Hoping I don't come around,
Kick me when I'm on the ground

Well how about those people I know that you know the ones I mean
Not so good, not so bad
Only know what they have
And they have only what they've seen
Them mediocre bad guys can really bring you down
They can't be defeated, and you know
They're never going to come around

They just beat me up and break me down
Hoping I don't come around
Kick me when I'm on the ground
Beat me up, and break me down
Hoping I don't come around
Kick me when I'm on the ground
They just beat me up and break me down
Hoping I don't come around
Kick me when I'm on the ground
Beat me up, and break me down
Hoping I don't come around
Kick me when I'm on the ground
Beat me up and break me down
Hoping I don't come around
Kick me when I'm on the ground
Beat me up, break me down
Hoping I don't come around
Kick me when I'm on the ground

************************************

| x   Dead note
| g   Grace note
| (n) Ghost note
| h   Hammer-on
| p   Pull-off
| r   Release
| >   Accented note
| t   Tapping
| b   Bend
| br  Bend release
| pb  Pre-bend
| pbr Pre-bend release
| /   Slide up
| \   Slide down
| ~   Vibrato
| s   Slap
| P   Pop
| PM  Palm mute
| TR  Trill
| N   Tremolo

************************************

            
            
Suggest correction
Creating personal tab
Creating personal tab
You can edit any tab online and save it as your Personal.

You can edit, replace or remove any tab part or add personal notes – all changes will be seen only by you.

Personal tabs can be accessed anytime from any device, even offline.
Learn more »
Give kudos to tab author, rate the tab!
1 2 3 4 5
comments
print report bad tab
guest
You may want to rate the tab now too:
select rating
Wanna post a correction for this tab? Suggest correction