Oops, an error
Loading. Please wait.
We have an official My Little Girl tab made by UG professional guitarists. Check out the tab »
×
31,314 views 6 this week
6 commentsread comments
1 2 3 4 5
x 8
add to favorites
×
Save as Personal and add changes to this tab that will be seen only by you. Learn more ›
×
You can save this tab as Personal to edit and correct it or add notes. All changes will be seen only by you. Learn more »
launch autoscroll
font size
0
reset
how to read this tab
guitar tuner
edit
Autoscroll
slow
fast
+/-
esc
set tempo
stop
Difficulty
intermediate
###
My Little Girl - Jack Johnson
###

Tabbed by: ryan (improved on chris' version)

Standard tuning

Intro & Chorus:
e|----3----7--  |--7----5----3----|x2
B|----3----8--  |--7----5----3----|
G|----4----9--  |--7----6----4----|
D|----5----9--  |--9----7----5----|
A|----5----7--  |--9----7----5----|
E|----3----x--  |--7----5----3----|


Verse:

Verse is easiest if you play last two chords as bar chords like this:
7      5              
7      5               
7      6
7      7
9      7
7      5

e|-----------------------------------------------------------------|
B|-----------------------------------------------------------------|
G|--x---7---x---7---x---7---x---7---x---7---x---7---x---6---x---6--|
D|--x---5---x---5---x---7---x---7---x---7---x---7---x---7---x---7--|
A|--x---7---x-------x---9---x---9---x-------x---9---x-------x---7--|
E|--x-------x---7---x-------x---10--x---7---x-------x---5---x------|



Hey, little girl
Black and white and right and wrong
Only live inside a song
I will sing to you

You don't ever have to feel lonely
You will never lose any tears
You don't have to feel any sadness
When you look back on the years

How can I look you in the eyes,
And tell you such big lies?
The best I can do is try to show you
How to love with no fear
My little girl
You've gone and stole my heart
And made it your own
You've stole my heart
And made it your own


Solo: (Played over verse chords)
e|---------------------------------------------------------------------|x2
B|-----------------------------------------------------------9/10--10--|
G|-----4---7---9---7----4---7---9---11------4---7---9---7--------------|
D|---x---x---x---x----x---x---x---x-------x---x---x---x----------------| 
A|---------------------------------------------------------------------|
E|---------------------------------------------------------------------|

Got to get the harmony going here to get that smooth sound
(Played over chorus chords)

e|------------------------------ |--------------------|x2----|
B|------------------------------ |--------------------|  ----|
G|-----14--11-14--11----9--7--9- |-11--14---9--7--9---|  ----|
D|-9---------------------------- |-------------------9|  s12-|
A|-9---12--9--12--9-----7--5--7- |-9---12---7--5--7---|  ----|
E|------------------------------ |-------------------7|  s10-|


Improve it if can!

----------------------------------
| /   slide up
| \   slide down
| h   hammer-on
| p   pull-off
| ~   vibrato
| +   harmonic
| x   Mute note
| b   Bend
| pb  Pre-bend
| br  Bend release
| pbr Pre-bend release
| brb Bend release bend
-----------------------------------

            
            
Suggest correction
Creating personal tab
Creating personal tab
You can edit any tab online and save it as your Personal.

You can edit, replace or remove any tab part or add personal notes – all changes will be seen only by you.

Personal tabs can be accessed anytime from any device, even offline.
Learn more »
comments
print report bad tab
6 comments total. Showing first comments.
0 reply
Tophdream 30 Sep 15, 2010 06:45 AM

are you sure for the mute notes of the solo ?

+1 reply
samgo27 10 Oct 13, 2010 11:19 AM

best interpretation of this song i have seen thus far, though the mute notes (i think) sound better as an E for the first section (octave up from low E) and a B for the second section.

0 reply
Frusciante19 20 Mar 05, 2011 10:43 AM

this is a nice tab

guest
Wanna post a correction for this tab? Suggest correction