Oops, an error
Loading. Please wait.
We have an official Never Fade tab made by UG professional guitarists. Check out the tab »
×
482 views 1 this week
no commentswrite comment
1 2 3 4 5
2 more votes to show rating
add to favorites
×
Save as Personal and add changes to this tab that will be seen only by you. Learn more ›
×
You can save this tab as Personal to edit and correct it or add notes. All changes will be seen only by you. Learn more »
launch autoscroll
font size
0
reset
how to read this tab
guitar tuner
edit
Autoscroll
slow
fast
+/-
esc
set tempo
stop
-------------------------------------------------------------------------------
                             NEVER FADE - Jack Johnson
-------------------------------------------------------------------------------
Tabbed by:David Axelsson
E-mail:davidaxelsson95@hotmail.com

Tuning:Standard (EADGBe)

Hi, i'm gonna do like many others and inform you all that this is my first tab - so you don't come here with 
too high expectations. 
The chords are from the first version of Never Fade here on UG ((VER.1 - Whole Song - Chords))


Chords(Relative to capo on 2:nd fret)
A
C#m
E
D
Bm
Cm

*u= strum up
 d= strum down

INTRO  [ A - C#m - E - E ]
        A          C#m         E             E
e|----------0-0---------4-4--------------------------------------------------|
B|-------2--2-2------5--5-5------0--0-0------0--0-0--------------------------|
G|----2---2-2-2----6--6-6-6----1--1-1-1----1--1-1-1--------------------------|
D|---2-2----2-2---6-6---6-6---2-2---2-2---2-2---2-2--------------------------|
A|--0-------0-0--4------4-4--2------2-2--2------2-2--------------------------|
E|---------------------------------------------------------------------------|
            d u         d u         d u         d u

        A          C#m         E 
e|---------0-0---------4-4---------------------------------------------------|
B|------2--2-2------5--5-5------0--0-0---------------------------------------|
G|----2--2-2-2----6--6-6-6----1--1-1-1---------------------------------------|
D|---2-2---2-2---6-6---6-6---2-2---2-2---------------------------------------|
A|--0------0-0--4------4-4--2------2-2---------------------------------------|
E|---------------------------------------------------------------------------|
           d u         d u         d u


CHORUS [ A - C#m - E - E - A - C#m - E - E ] x2
        A          C#m         E           E
e|----------0-0---------4-4--------------------------------------------------|
B|-------2--2-2------5--5-5------0--0-0------0--0-0--------------------------|
G|----2---2-2-2----6--6-6-6----1--1-1-1----1--1-1-1--------------------------|
D|---2-2----2-2---6-6---6-6---2-2---2-2---2-2---2-2--------------------------|
A|--0-------0-0--4------4-4--2------2-2--2------2-2--------------------------|
E|---------------------------------------------------------------------------|
            d u         d u         d u         d u
     
       A           C#m         E           E
e|----------0-0---------4-4--------------------------------------------------|
B|-------2--2-2------5--5-5------0--0-0------0--0-0--------------------------|
G|----2---2-2-2----6--6-6-6----1--1-1-1----1--1-1-1--------------------------|
D|---2-2----2-2---6-6---6-6---2-2---2-2---2-2---2-2--------------------------|
A|--0-------0-0--4------4-4--2------2-2--2------2-2--------------------------|
E|---------------------------------------------------------------------------|
            d u         d u         d u         d u 


VERSE.1 [ D - D - C#m - C#m - Bm - Bm - E - E ] x2
       D          D           C#m        C#m
e|------2--2-2------2--2-2---------4-4---------4-4---------------------------|
B|----3--3-3-3----3--3-3-3------5--5-5------5--5-5---------------------------|
G|---2-2---2-2---2-2---2-2----6--6-6-6----6--6-6-6---------------------------|
D|--0------0-0--0------0-0---6-6---6-6---6-6---6-6---------------------------|
A|--------------------------4------4-4--4------4-4---------------------------|
E|---------------------------------------------------------------------------|
           d u         d u         d u         d u 
     
       Bm         Bm          E           E
e|---------2-2---------2-2---------------------------------------------------|
B|------3--3-3------3--3-3------0--0-0------0--0-0---------------------------|
G|----4--4-4-4----4--4-4-4----1--1-1-1----1--1-1-1---------------------------|
D|---4-4---4-4---4-4---4-4---2-2---2-2---2-2---2-2---------------------------|
A|--2------2-2--2------2-2--2------2-2--2------2-2---------------------------|
E|---------------------------------------------------------------------------|
           d u         d u         d u         d u


CHORUS [ A - C#m - E - E - A - C#m - E - E ] x2   
      A             C#m        E          E
e|----------0-0---------4-4--------------------------------------------------|
B|-------2--2-2------5--5-5------0--0-0------0--0-0--------------------------|
G|----2---2-2-2----6--6-6-6----1--1-1-1----1--1-1-1--------------------------|
D|---2-2----2-2---6-6---6-6---2-2---2-2---2-2---2-2--------------------------|
A|--0-------0-0--4------4-4--2------2-2--2------2-2--------------------------|
E|---------------------------------------------------------------------------|
            d u         d u         d u         d u

      A             C#m       E           E
e|----------0-0---------4-4--------------------------------------------------|
B|-------2--2-2------5--5-5------0--0-0------0--0-0--------------------------|
G|----2---2-2-2----6--6-6-6----1--1-1-1----1--1-1-1--------------------------|
D|---2-2----2-2---6-6---6-6---2-2---2-2---2-2---2-2--------------------------|
A|--0-------0-0--4------4-4--2------2-2--2------2-2--------------------------|
E|---------------------------------------------------------------------------|
            d u         d u         d u         d u 


VERSE.2 [ D - D - C#m - C#m - Bm - Bm - E - E ] x2
       D          D          C#m          C#m
e|------2--2-2------2--2-2---------4-4---------4-4---------------------------|
B|----3--3-3-3----3--3-3-3------5--5-5------5--5-5---------------------------|
G|---2-2---2-2---2-2---2-2----6--6-6-6----6--6-6-6---------------------------|
D|--0------0-0--0------0-0---6-6---6-6---6-6---6-6---------------------------|
A|--------------------------4------4-4--4------4-4---------------------------|
E|---------------------------------------------------------------------------|
           d u         d u         d u         d u 
       Bm         Bm         E            E
e|---------2-2---------2-2---------------------------------------------------|
B|------3--3-3------3--3-3------0--0-0------0--0-0---------------------------|
G|----4--4-4-4----4--4-4-4----1--1-1-1----1--1-1-1---------------------------|
D|---4-4---4-4---4-4---4-4---2-2---2-2---2-2---2-2---------------------------|
A|--2------2-2--2------2-2--2------2-2--2------2-2---------------------------|
E|---------------------------------------------------------------------------|
           d u         d u         d u         d u


CHORUS [ A - C#m - E - E - A - C#m - E - E ] x2
      A            C#m         E           E
e|----------0-0---------4-4--------------------------------------------------|
B|-------2--2-2------5--5-5------0--0-0------0--0-0--------------------------|
G|----2---2-2-2----6--6-6-6----1--1-1-1----1--1-1-1--------------------------|
D|---2-2----2-2---6-6---6-6---2-2---2-2---2-2---2-2--------------------------|
A|--0-------0-0--4------4-4--2------2-2--2------2-2--------------------------|
E|---------------------------------------------------------------------------|
            d u         d u         d u         d u
      A            C#m         E           E
e|----------0-0---------4-4--------------------------------------------------|
B|-------2--2-2------5--5-5------0--0-0------0--0-0--------------------------|
G|----2---2-2-2----6--6-6-6----1--1-1-1----1--1-1-1--------------------------|
D|---2-2----2-2---6-6---6-6---2-2---2-2---2-2---2-2--------------------------|
A|--0-------0-0--4------4-4--2------2-2--2------2-2--------------------------|
E|---------------------------------------------------------------------------|
            d u         d u         d u         d u 


VERSE [ D - D - C#m - C#m - Bm - Bm - E - E ] x2
       D           D          C#m         C#m
e|------2--2-2------2--2-2---------4-4---------4-4---------------------------|
B|----3--3-3-3----3--3-3-3------5--5-5------5--5-5---------------------------|
G|---2-2---2-2---2-2---2-2----6--6-6-6----6--6-6-6---------------------------|
D|--0------0-0--0------0-0---6-6---6-6---6-6---6-6---------------------------|
A|--------------------------4------4-4--4------4-4---------------------------|
E|---------------------------------------------------------------------------|
           d u         d u         d u         d u 

      Bm           Bm         E           E
e|---------2-2---------2-2---------------------------------------------------|
B|------3--3-3------3--3-3------0--0-0------0--0-0---------------------------|
G|----4--4-4-4----4--4-4-4----1--1-1-1----1--1-1-1---------------------------|
D|---4-4---4-4---4-4---4-4---2-2---2-2---2-2---2-2---------------------------|
A|--2------2-2--2------2-2--2------2-2--2------2-2---------------------------|
E|---------------------------------------------------------------------------|
           d u         d u         d u         d u

BRIDGE [ A - C#m - Cm - Bm - E ] x4
      A         C#m  Cm     Bm         E  
e|---------0-0-------------------2-2-----------------------------------------|
B|------2--2-2----------------3--3-3------0--0-0-----------------------------|
G|----2--2-2-2----6----5----4--4-4-4----1--1-1-1-----------------------------|
D|---2-2---2-2---6-6--5-5--4-4---4-4---2-2---2-2-----------------------------|
A|--0------0-0--4----3----2------2-2--2------2-2-----------------------------|
E|---------------------------------------------------------------------------|
           d u                   d u         d u

CHORUS/OUTRO [ A - C#m - E - A - C#m - Cm - Bm - E ]
             [ A - C#m - E - A - C#m - Cm - Bm ]
             [ E - A - C#m - Cm - Bm ] x2 (the second/last time, end with E - A -> Shown in the last tab bar)*

       A          C#m         E           E         C#m  Cm     Bm         E
e|---------0-0---------4-4---------------------0-0-------------------2-2---------------|
B|------2--2-2------5--5-5------0--0-0------2--2-2----------------3--3-3------0--0-0---|
G|----2--2-2-2----6--6-6-6----1--1-1-1----2--2-2-2----6----5----4--4-4-4----1--1-1-1---|
D|---2-2---2-2---6-6---6-6---2-2---2-2---2-2---2-2---6-6--5-5--4-4---4-4---2-2---2-2---|
A|--0------0-0--4------4-4--2------2-2--0------0-0--4----3----2------2-2--2------2-2---|
E|-------------------------------------------------------------------------------------|
           d u         d u                     d u                   d u         d u

       A          C#m         E           E         C#m  Cm     Bm
e|---------0-0---------4-4---------------------0-0-------------------2-2-----|
B|------2--2-2------5--5-5------0--0-0------2--2-2----------------3--3-3-----|
G|----2--2-2-2----6--6-6-6----1--1-1-1----2--2-2-2----6----5----4--4-4-4-----|
D|---2-2---2-2---6-6---6-6---2-2---2-2---2-2---2-2---6-6--5-5--4-4---4-4-----|
A|--0------0-0--4------4-4--2------2-2--0------0-0--4----3----2------2-2-----|
E|---------------------------------------------------------------------------|
           d u         d u         d u         d u                   d u 

      E            A         C#m  Cm      Bm
e|----------------------0-0--------------------2-2---------------------------|
B|-------0--0-0------2--2-2-----------------3--3-3---------------------------|
G|-----1--1-1-1----2--2-2-2----6----5-----4--4-4-4---------------------------|
D|----2-2---2-2---2-2---2-2---6-6--5-5---4-4---4-4---------------------------|
A|---2------2-2--0------0-0--4----3-----2------2-2---------------------------|
E|---------------------------------------------------------------------------|
            d u         d u                    d u 


*    E            A          C#m  Cm      Bm         E           A
e|---------------------0-0--------------------2-2---------------------0-0----|
B|------0--0-0------2--2-2-----------------3--3-3------0--0-0------2--2-2----|
G|----1--1-1-1----2--2-2-2----6----5-----4--4-4-4----1--1-1-1----2--2-2-2----|
D|---2-2---2-2---2-2---2-2---6-6--5-5---4-4---4-4---2-2---2-2---2-2---2-2----|
A|--2------2-2--0------0-0--4----3-----2------2-2--2------2-2--0------0-0----|
E|---------------------------------------------------------------------------|
           d u         d u                    d u         d u         d u



this is what I've figured out. Doubt that it's 100% - so feel free to leave corrections. 
Hope y'all accept/like it - if not, well you know were the rating bar is. 



            
            
Suggest correction
Creating personal tab
Creating personal tab
You can edit any tab online and save it as your Personal.

You can edit, replace or remove any tab part or add personal notes – all changes will be seen only by you.

Personal tabs can be accessed anytime from any device, even offline.
Learn more »
Give kudos to tab author, rate the tab!
1 2 3 4 5
comments
print report bad tab
guest
You may want to rate the tab now too:
select rating
Wanna post a correction for this tab? Suggest correction