Oops, an error
Loading. Please wait.

Red Wine Mistakes Mythology tab

version 1
version 1

Whole song

19,665 views 18 this week
4 commentsread comments
1 2 3 4 5
x 14
add to favorites
×
Save as Personal and add changes to this tab that will be seen only by you. Learn more ›
×
You can save this tab as Personal to edit and correct it or add notes. All changes will be seen only by you. Learn more »
launch autoscroll
font size
0
reset
how to read this tab
guitar tuner
edit
Autoscroll
slow
fast
+/-
esc
set tempo
stop
Artist: Jack Johnson
Song: Red Wine, Mistakes, Mythology
Album: To The Sea (2010)
tabbed by: necriononguitar
e-mail (NO SPAM!): tim.rathgen@gmx.de

REAL FANS SUPPORT BANDS BY PURCHASING THEIR CD'S!!!


. = Palm-Muted
~ = hold note
^ = vibrate
p = pull off
h = hammer on
/ = slide up
\ = slide down


Tuning: Standard


Announcement: I used Power-Chords since i couldnt hear any minor or major... i 
guess this is more of a blues song, played by the piano...
Oh and u can play a C#5 and D5 instead of Bb5 B5!
Anyways, Enjoy!
      

Harmonica Intro:
E-----------------------------|
B----/10----------------------|
G--------12-10----------------|
D--------------12--12---------|
A-----------------------------|
E-----------------------------|

Whooooooooh...

*Piano Interlude*     Thanks to Glenn Wellmann for helping me with the Piano!
E----------------------------------------------------------------|
B----------------------------------------------------------------|
G----------------------------------------------------------------|
D---4-4--5-5--6-6--7-7---9--9---10-10--11-11--12-12\-------------|
A---5-5--7-7--8-8--9-9---10-10--12-12--13-13--14-14\-------------|
E----------------------------------------------------------------|


D5                      F5  F#5 G5                         Bb5  B5  D5
   Everybody is made of clay          Is what they used to say       til...
                    F5  F#5  G5                        Bb5      B5       D5
Truth stepped on us all   Now...   everything that was big is small   just...
              F5  F#5  G5                 Bb5     B5           D5
Little crying robots   program me I wanna win the race I wanna find the place
          F5         F#5      G5
Where the king locked up the princess
                 Bb5               B5          
Jump the fence         And drink a little bit of...


D5                       G5
Red wine, mistakes, apologies     ...and it's all just
C5                          G5                  
Red wine, headaches, mythology

D5                       G5
Red wine, mistakes, apologies     ...and it's all just
C5                          G5                  
Red wine, headaches, mythology


+++++Solo+++++
D5   F5 F#5 G5    Bb5 B5
D5   F5 F#5 G5    Bb5 B5

D5                          F5  F#5  G5                       Bb5   B5  
Now who's the king of the sky           jupiter says oh me oh my oh why
D5                 F5  F#5  G5                          Bb5    B5     D5
Is the game always changing,     I've been through some strangeness
                          F5        F#5        G5          
What's the matter, Is the feast not fat enough
                        Bb5              Bb5        D5
Up the ladder with your feet,   reaching with your hands
                       F5                F#5         G5
You can feel it and dream it, I know you want to believe it
                      Bb5           B5
Just steal it, take a piece of the sun          And drink some...


D5                       G5
Red wine, mistakes, apologies     ...and it's all
C5                          G5                  
Red wine, headaches, mythology

D5                       G5
Red wine, mistakes, apologies     ...and it's all
C5                          G5                  
Red wine, headaches, mythology


++++++Solo 2++++++
D5   F5 G5    Bb5 B5
D5   F5 G5    Bb5 B5

D5   F5 G5    Bb5 B5
D5   F5 G5    Bb5 B5


D5                   F5  F#5  G5                                  Bb5    B5  
  Everybody's in the play    At  least thats what the script told me to say
        D5                 F5         F#5         G5
It said:   Shadows cut across the hero's face, he falls from grace
        Bb5         B5
Until a little bird sang:                        that...
    D5             F5  F#5  G5                 Bb5   B5
The truth is never ending   We're just here pretending
D5                      F5       F#5      
Let's all laugh so that we don't cry  
      G5                   Bb5       B5
let's all lift the glasses up to the sky        for some...


D5                       G5
Red wine, mistakes, apologies     ...and it's all just
C5                          G5                  
Red wine, headaches, mythology

D5                       G5
Red wine, mistakes, apologies     ...and it's all just
C5                          G5                  
Red wine, headaches, mythology


D5   G5   C5   G5
D5   G5   C5   G5
D5   G5   C5   G5
D5   G5   C5   G5


Guitar Solo after the first Chorus:
E----------------------------------------------------------------------------|
B----------------------------------------------------------------------------|
G-------------12--10^^^^^---7--7/10\----------------3~---5~---(5)/7~----(7)\-|
D---10h12p10---------------------------------0h3h5---------------------------|
A----------------------------------------------------------------------------|
E----------------------------------------------------------------------------|

Guitar Solo after the second Chorus:
E-------------------------------------------------------------------------|
B----8b~---b9----10b~---b11---------13b15-13------------------------------|
G---------------------------------------------14--12b14---12-10^^^^^------|
D-------------------------------------------------------------------------|
A-------------------------------------------------------------------------|
E-------------------------------------------------------------------------|

E-------------------------------------------------------------------------|
B----8b~---b9----10b~---b11---------13b15~-----r1/2~---(r14~)-(fade out)--|
G-------------------------------------------------------------------------|
D-------------------------------------------------------------------------|
A-------------------------------------------------------------------------|
E-------------------------------------------------------------------------|

E---------------------------------------------------------|
B---------------------------------------------------------|
G------------12-10~-------------------12-10~----7~--------|
D---0h10h12------------------0h10h12----------------------|
A---------------------------------------------------------|
E---------------------------------------------------------|

E--------------------------------------------------------------------------|
B----------------------------------------------------10--------------------|
G------------12-10~-------------------12-10~----12b14~---10~---(10)\7~-----|
D---0h10h12------------------0h10h12---------------------------------------|
A--------------------------------------------------------------------------|
E--------------------------------------------------------------------------|


and that's it! I hope this helped, please rate, comment and correct me!

Cheers...

            
            
Suggest correction
Creating personal tab
Creating personal tab
You can edit any tab online and save it as your Personal.

You can edit, replace or remove any tab part or add personal notes – all changes will be seen only by you.

Personal tabs can be accessed anytime from any device, even offline.
Learn more »
comments
print report bad tab
4 comments total. Showing first comments.
0 reply
nitroguitar 133 Jun 24, 2010 05:53 AM

die ersten 5 sind schon da xd

0 reply
necriononguitar 3,062 Jun 24, 2010 08:57 AM

danke man xD

0 reply
RocknRollKing 10 Jun 24, 2010 09:08 AM

great tab, 5

guest
You may want to rate the tab now too:
select rating
Wanna post a correction for this tab? Suggest correction